ISO-10303-21;
HEADER;
/* Generated by software containing ST-Developer
 * from STEP Tools, Inc. (www.steptools.com) 
 */
/* OPTION: using custom schema-name function */

FILE_DESCRIPTION(
/* description */ (''),
/* implementation_level */ '2;1');

FILE_NAME(
/* name */ '5359.stp',
/* time_stamp */ '2020-05-11T10:11:28+08:00',
/* author */ (''),
/* organization */ (''),
/* preprocessor_version */ 'ST-DEVELOPER v16',
/* originating_system */ 'SIEMENS PLM Software NX 11.0',
/* authorisation */ '');

FILE_SCHEMA (('AUTOMOTIVE_DESIGN { 1 0 10303 214 3 1 1 1 }'));
ENDSEC;

DATA;
#10=CONTEXT_DEPENDENT_SHAPE_REPRESENTATION(#14,#25);
#11=CONTEXT_DEPENDENT_SHAPE_REPRESENTATION(#15,#27);
#12=NEXT_ASSEMBLY_USAGE_OCCURRENCE('1001',' ','12010295.T105',#29,#28,$);
#13=NEXT_ASSEMBLY_USAGE_OCCURRENCE('1002',' ','15324980',#30,#29,$);
#14=(
REPRESENTATION_RELATIONSHIP(' ',' ',#48,#49)
REPRESENTATION_RELATIONSHIP_WITH_TRANSFORMATION(#16)
SHAPE_REPRESENTATION_RELATIONSHIP()
);
#15=(
REPRESENTATION_RELATIONSHIP(' ',' ',#49,#50)
REPRESENTATION_RELATIONSHIP_WITH_TRANSFORMATION(#17)
SHAPE_REPRESENTATION_RELATIONSHIP()
);
#16=ITEM_DEFINED_TRANSFORMATION(' ',' ',#359,#414);
#17=ITEM_DEFINED_TRANSFORMATION(' ',' ',#359,#415);
#18=SHAPE_REPRESENTATION_RELATIONSHIP('PART',
'relationship between 12010295-MLT05_00-MISC-PART and 12010295-MLT05_0
0-MISC-PART',#48,#19);
#19=ADVANCED_BREP_SHAPE_REPRESENTATION('12010295-MLT05_00-MISC-PART',(#60),
#617);
#20=SHAPE_DEFINITION_REPRESENTATION(#23,#48);
#21=SHAPE_DEFINITION_REPRESENTATION(#24,#49);
#22=SHAPE_DEFINITION_REPRESENTATION(#26,#50);
#23=PRODUCT_DEFINITION_SHAPE('','',#28);
#24=PRODUCT_DEFINITION_SHAPE('','',#29);
#25=PRODUCT_DEFINITION_SHAPE(' ','NAUO PRDDFN',#12);
#26=PRODUCT_DEFINITION_SHAPE('','',#30);
#27=PRODUCT_DEFINITION_SHAPE(' ','NAUO PRDDFN',#13);
#28=PRODUCT_DEFINITION(' ','',#34,#31);
#29=PRODUCT_DEFINITION(' ','',#35,#32);
#30=PRODUCT_DEFINITION(' ','',#36,#33);
#31=PRODUCT_DEFINITION_CONTEXT('part definition',#47,'design');
#32=PRODUCT_DEFINITION_CONTEXT('part definition',#47,'design');
#33=PRODUCT_DEFINITION_CONTEXT('part definition',#47,'design');
#34=PRODUCT_DEFINITION_FORMATION_WITH_SPECIFIED_SOURCE(' ',' ',#40,
 .NOT_KNOWN.);
#35=PRODUCT_DEFINITION_FORMATION_WITH_SPECIFIED_SOURCE(' ',' ',#41,
 .NOT_KNOWN.);
#36=PRODUCT_DEFINITION_FORMATION_WITH_SPECIFIED_SOURCE(' ',' ',#42,
 .NOT_KNOWN.);
#37=PRODUCT_RELATED_PRODUCT_CATEGORY('part','',(#40));
#38=PRODUCT_RELATED_PRODUCT_CATEGORY('part','',(#41));
#39=PRODUCT_RELATED_PRODUCT_CATEGORY('part','',(#42));
#40=PRODUCT('12010295-MLT05_00-MISC','12010295-MLT05_00-MISC',' ',(#43));
#41=PRODUCT('15324980_01AD-SEAL_PART','15324980_01AD-SEAL_PART',' ',(#44));
#42=PRODUCT('15363991_01AB-SEAL','15363991_01AB-SEAL',' ',(#45));
#43=PRODUCT_CONTEXT(' ',#47,'mechanical');
#44=PRODUCT_CONTEXT(' ',#47,'mechanical');
#45=PRODUCT_CONTEXT(' ',#47,'mechanical');
#46=APPLICATION_PROTOCOL_DEFINITION('international standard',
'automotive_design',2010,#47);
#47=APPLICATION_CONTEXT(
'core data for automotive mechanical design processes');
#48=SHAPE_REPRESENTATION('12010295-MLT05_00-MISC-PART',(#359),#617);
#49=SHAPE_REPRESENTATION('15324980_01AD-SEAL_PART-PART',(#359,#414),#616);
#50=SHAPE_REPRESENTATION('15363991_01AB-SEAL-none',(#359,#415),#615);
#51=PRESENTATION_LAYER_ASSIGNMENT('101','Layer 101',(#60));
#52=STYLED_ITEM('',(#53),#60);
#53=PRESENTATION_STYLE_ASSIGNMENT((#54));
#54=SURFACE_STYLE_USAGE(.BOTH.,#55);
#55=SURFACE_SIDE_STYLE('',(#56));
#56=SURFACE_STYLE_FILL_AREA(#57);
#57=FILL_AREA_STYLE('',(#58));
#58=FILL_AREA_STYLE_COLOUR('',#59);
#59=COLOUR_RGB('Aquamarine',0.2,0.669993133440146,0.469993133440146);
#60=MANIFOLD_SOLID_BREP('',#61);
#61=CLOSED_SHELL('',(#81,#82,#83,#84,#85,#86,#87,#88,#89,#90,#91,#92,#93,
#94,#95,#96,#97,#98,#99,#100,#101,#102,#103,#104,#105,#106,#107));
#62=CYLINDRICAL_SURFACE('',#377,3.62499999999999);
#63=CYLINDRICAL_SURFACE('',#385,3.625);
#64=CYLINDRICAL_SURFACE('',#392,3.625);
#65=CYLINDRICAL_SURFACE('',#399,1.19999999999999);
#66=CYLINDRICAL_SURFACE('',#402,2.125);
#67=CYLINDRICAL_SURFACE('',#405,3.54999999999999);
#68=CYLINDRICAL_SURFACE('',#407,3.55);
#69=CYLINDRICAL_SURFACE('',#410,3.225);
#70=CYLINDRICAL_SURFACE('',#412,2.925);
#71=CONICAL_SURFACE('',#373,2.49013770290094,85.0000000000002);
#72=CONICAL_SURFACE('',#381,2.90564782869782,84.9999999999999);
#73=CONICAL_SURFACE('',#389,2.90564782869829,85.0000000000003);
#74=CONICAL_SURFACE('',#397,1.2,30.0000000000001);
#75=TOROIDAL_SURFACE('',#371,2.525,0.4);
#76=TOROIDAL_SURFACE('',#375,3.275,0.35);
#77=TOROIDAL_SURFACE('',#379,2.94437791603008,0.444377916030076);
#78=TOROIDAL_SURFACE('',#383,3.275,0.35);
#79=TOROIDAL_SURFACE('',#387,2.94437791603008,0.444377916030076);
#80=TOROIDAL_SURFACE('',#391,3.275,0.35);
#81=ADVANCED_FACE('',(#116,#117),#108,.F.);
#82=ADVANCED_FACE('',(#118,#119),#109,.F.);
#83=ADVANCED_FACE('',(#120,#121),#110,.F.);
#84=ADVANCED_FACE('',(#122,#123),#75,.F.);
#85=ADVANCED_FACE('',(#124,#125),#71,.T.);
#86=ADVANCED_FACE('',(#126,#127),#76,.T.);
#87=ADVANCED_FACE('',(#128,#129),#62,.T.);
#88=ADVANCED_FACE('',(#130,#131),#77,.F.);
#89=ADVANCED_FACE('',(#132,#133),#72,.T.);
#90=ADVANCED_FACE('',(#134,#135),#78,.T.);
#91=ADVANCED_FACE('',(#136,#137),#63,.T.);
#92=ADVANCED_FACE('',(#138,#139),#79,.F.);
#93=ADVANCED_FACE('',(#140,#141),#73,.T.);
#94=ADVANCED_FACE('',(#142,#143),#80,.T.);
#95=ADVANCED_FACE('',(#144,#145),#64,.T.);
#96=ADVANCED_FACE('',(#146,#147),#111,.F.);
#97=ADVANCED_FACE('',(#148,#149),#74,.F.);
#98=ADVANCED_FACE('',(#150,#151),#65,.F.);
#99=ADVANCED_FACE('',(#152,#153),#112,.T.);
#100=ADVANCED_FACE('',(#154,#155),#66,.T.);
#101=ADVANCED_FACE('',(#156,#157),#113,.F.);
#102=ADVANCED_FACE('',(#158,#159),#67,.T.);
#103=ADVANCED_FACE('',(#160,#161),#68,.T.);
#104=ADVANCED_FACE('',(#162,#163),#114,.F.);
#105=ADVANCED_FACE('',(#164,#165),#69,.T.);
#106=ADVANCED_FACE('',(#166,#167),#70,.F.);
#107=ADVANCED_FACE('',(#168,#169),#115,.T.);
#108=PLANE('',#362);
#109=PLANE('',#365);
#110=PLANE('',#368);
#111=PLANE('',#395);
#112=PLANE('',#401);
#113=PLANE('',#404);
#114=PLANE('',#408);
#115=PLANE('',#413);
#116=FACE_BOUND('',#170,.T.);
#117=FACE_BOUND('',#171,.T.);
#118=FACE_BOUND('',#172,.T.);
#119=FACE_BOUND('',#173,.T.);
#120=FACE_BOUND('',#174,.T.);
#121=FACE_BOUND('',#175,.T.);
#122=FACE_BOUND('',#176,.T.);
#123=FACE_BOUND('',#177,.T.);
#124=FACE_BOUND('',#178,.T.);
#125=FACE_BOUND('',#179,.T.);
#126=FACE_BOUND('',#180,.T.);
#127=FACE_BOUND('',#181,.T.);
#128=FACE_BOUND('',#182,.T.);
#129=FACE_BOUND('',#183,.T.);
#130=FACE_BOUND('',#184,.T.);
#131=FACE_BOUND('',#185,.T.);
#132=FACE_BOUND('',#186,.T.);
#133=FACE_BOUND('',#187,.T.);
#134=FACE_BOUND('',#188,.T.);
#135=FACE_BOUND('',#189,.T.);
#136=FACE_BOUND('',#190,.T.);
#137=FACE_BOUND('',#191,.T.);
#138=FACE_BOUND('',#192,.T.);
#139=FACE_BOUND('',#193,.T.);
#140=FACE_BOUND('',#194,.T.);
#141=FACE_BOUND('',#195,.T.);
#142=FACE_BOUND('',#196,.T.);
#143=FACE_BOUND('',#197,.T.);
#144=FACE_BOUND('',#198,.T.);
#145=FACE_BOUND('',#199,.T.);
#146=FACE_BOUND('',#200,.T.);
#147=FACE_BOUND('',#201,.T.);
#148=FACE_BOUND('',#202,.T.);
#149=FACE_BOUND('',#203,.T.);
#150=FACE_BOUND('',#204,.T.);
#151=FACE_BOUND('',#205,.T.);
#152=FACE_BOUND('',#206,.T.);
#153=FACE_BOUND('',#207,.T.);
#154=FACE_BOUND('',#208,.T.);
#155=FACE_BOUND('',#209,.T.);
#156=FACE_BOUND('',#210,.T.);
#157=FACE_BOUND('',#211,.T.);
#158=FACE_BOUND('',#212,.T.);
#159=FACE_BOUND('',#213,.T.);
#160=FACE_BOUND('',#214,.T.);
#161=FACE_BOUND('',#215,.T.);
#162=FACE_BOUND('',#216,.T.);
#163=FACE_BOUND('',#217,.T.);
#164=FACE_BOUND('',#218,.T.);
#165=FACE_BOUND('',#219,.T.);
#166=FACE_BOUND('',#220,.T.);
#167=FACE_BOUND('',#221,.T.);
#168=FACE_BOUND('',#222,.T.);
#169=FACE_BOUND('',#223,.T.);
#170=EDGE_LOOP('',(#224));
#171=EDGE_LOOP('',(#225));
#172=EDGE_LOOP('',(#226));
#173=EDGE_LOOP('',(#227));
#174=EDGE_LOOP('',(#228));
#175=EDGE_LOOP('',(#229));
#176=EDGE_LOOP('',(#230));
#177=EDGE_LOOP('',(#231));
#178=EDGE_LOOP('',(#232));
#179=EDGE_LOOP('',(#233));
#180=EDGE_LOOP('',(#234));
#181=EDGE_LOOP('',(#235));
#182=EDGE_LOOP('',(#236));
#183=EDGE_LOOP('',(#237));
#184=EDGE_LOOP('',(#238));
#185=EDGE_LOOP('',(#239));
#186=EDGE_LOOP('',(#240));
#187=EDGE_LOOP('',(#241));
#188=EDGE_LOOP('',(#242));
#189=EDGE_LOOP('',(#243));
#190=EDGE_LOOP('',(#244));
#191=EDGE_LOOP('',(#245));
#192=EDGE_LOOP('',(#246));
#193=EDGE_LOOP('',(#247));
#194=EDGE_LOOP('',(#248));
#195=EDGE_LOOP('',(#249));
#196=EDGE_LOOP('',(#250));
#197=EDGE_LOOP('',(#251));
#198=EDGE_LOOP('',(#252));
#199=EDGE_LOOP('',(#253));
#200=EDGE_LOOP('',(#254));
#201=EDGE_LOOP('',(#255));
#202=EDGE_LOOP('',(#256));
#203=EDGE_LOOP('',(#257));
#204=EDGE_LOOP('',(#258));
#205=EDGE_LOOP('',(#259));
#206=EDGE_LOOP('',(#260));
#207=EDGE_LOOP('',(#261));
#208=EDGE_LOOP('',(#262));
#209=EDGE_LOOP('',(#263));
#210=EDGE_LOOP('',(#264));
#211=EDGE_LOOP('',(#265));
#212=EDGE_LOOP('',(#266));
#213=EDGE_LOOP('',(#267));
#214=EDGE_LOOP('',(#268));
#215=EDGE_LOOP('',(#269));
#216=EDGE_LOOP('',(#270));
#217=EDGE_LOOP('',(#271));
#218=EDGE_LOOP('',(#272));
#219=EDGE_LOOP('',(#273));
#220=EDGE_LOOP('',(#274));
#221=EDGE_LOOP('',(#275));
#222=EDGE_LOOP('',(#276));
#223=EDGE_LOOP('',(#277));
#224=ORIENTED_EDGE('',*,*,#305,.F.);
#225=ORIENTED_EDGE('',*,*,#306,.F.);
#226=ORIENTED_EDGE('',*,*,#307,.T.);
#227=ORIENTED_EDGE('',*,*,#308,.F.);
#228=ORIENTED_EDGE('',*,*,#309,.T.);
#229=ORIENTED_EDGE('',*,*,#310,.F.);
#230=ORIENTED_EDGE('',*,*,#311,.T.);
#231=ORIENTED_EDGE('',*,*,#312,.F.);
#232=ORIENTED_EDGE('',*,*,#313,.T.);
#233=ORIENTED_EDGE('',*,*,#311,.F.);
#234=ORIENTED_EDGE('',*,*,#313,.F.);
#235=ORIENTED_EDGE('',*,*,#314,.T.);
#236=ORIENTED_EDGE('',*,*,#315,.T.);
#237=ORIENTED_EDGE('',*,*,#314,.F.);
#238=ORIENTED_EDGE('',*,*,#309,.F.);
#239=ORIENTED_EDGE('',*,*,#316,.T.);
#240=ORIENTED_EDGE('',*,*,#317,.T.);
#241=ORIENTED_EDGE('',*,*,#316,.F.);
#242=ORIENTED_EDGE('',*,*,#317,.F.);
#243=ORIENTED_EDGE('',*,*,#318,.T.);
#244=ORIENTED_EDGE('',*,*,#319,.T.);
#245=ORIENTED_EDGE('',*,*,#318,.F.);
#246=ORIENTED_EDGE('',*,*,#307,.F.);
#247=ORIENTED_EDGE('',*,*,#320,.T.);
#248=ORIENTED_EDGE('',*,*,#321,.T.);
#249=ORIENTED_EDGE('',*,*,#320,.F.);
#250=ORIENTED_EDGE('',*,*,#321,.F.);
#251=ORIENTED_EDGE('',*,*,#322,.T.);
#252=ORIENTED_EDGE('',*,*,#322,.F.);
#253=ORIENTED_EDGE('',*,*,#305,.T.);
#254=ORIENTED_EDGE('',*,*,#323,.T.);
#255=ORIENTED_EDGE('',*,*,#324,.T.);
#256=ORIENTED_EDGE('',*,*,#324,.F.);
#257=ORIENTED_EDGE('',*,*,#325,.T.);
#258=ORIENTED_EDGE('',*,*,#325,.F.);
#259=ORIENTED_EDGE('',*,*,#326,.T.);
#260=ORIENTED_EDGE('',*,*,#327,.T.);
#261=ORIENTED_EDGE('',*,*,#326,.F.);
#262=ORIENTED_EDGE('',*,*,#312,.T.);
#263=ORIENTED_EDGE('',*,*,#327,.F.);
#264=ORIENTED_EDGE('',*,*,#315,.F.);
#265=ORIENTED_EDGE('',*,*,#328,.T.);
#266=ORIENTED_EDGE('',*,*,#310,.T.);
#267=ORIENTED_EDGE('',*,*,#328,.F.);
#268=ORIENTED_EDGE('',*,*,#308,.T.);
#269=ORIENTED_EDGE('',*,*,#329,.F.);
#270=ORIENTED_EDGE('',*,*,#319,.F.);
#271=ORIENTED_EDGE('',*,*,#329,.T.);
#272=ORIENTED_EDGE('',*,*,#330,.F.);
#273=ORIENTED_EDGE('',*,*,#306,.T.);
#274=ORIENTED_EDGE('',*,*,#331,.T.);
#275=ORIENTED_EDGE('',*,*,#323,.F.);
#276=ORIENTED_EDGE('',*,*,#331,.F.);
#277=ORIENTED_EDGE('',*,*,#330,.T.);
#278=VERTEX_POINT('',#532);
#279=VERTEX_POINT('',#534);
#280=VERTEX_POINT('',#537);
#281=VERTEX_POINT('',#539);
#282=VERTEX_POINT('',#542);
#283=VERTEX_POINT('',#544);
#284=VERTEX_POINT('',#547);
#285=VERTEX_POINT('',#549);
#286=VERTEX_POINT('',#552);
#287=VERTEX_POINT('',#555);
#288=VERTEX_POINT('',#558);
#289=VERTEX_POINT('',#561);
#290=VERTEX_POINT('',#564);
#291=VERTEX_POINT('',#567);
#292=VERTEX_POINT('',#570);
#293=VERTEX_POINT('',#573);
#294=VERTEX_POINT('',#576);
#295=VERTEX_POINT('',#579);
#296=VERTEX_POINT('',#583);
#297=VERTEX_POINT('',#585);
#298=VERTEX_POINT('',#588);
#299=VERTEX_POINT('',#591);
#300=VERTEX_POINT('',#594);
#301=VERTEX_POINT('',#598);
#302=VERTEX_POINT('',#602);
#303=VERTEX_POINT('',#606);
#304=VERTEX_POINT('',#609);
#305=EDGE_CURVE('',#278,#278,#332,.T.);
#306=EDGE_CURVE('',#279,#279,#333,.T.);
#307=EDGE_CURVE('',#280,#280,#334,.T.);
#308=EDGE_CURVE('',#281,#281,#335,.T.);
#309=EDGE_CURVE('',#282,#282,#336,.T.);
#310=EDGE_CURVE('',#283,#283,#337,.T.);
#311=EDGE_CURVE('',#284,#284,#338,.T.);
#312=EDGE_CURVE('',#285,#285,#339,.T.);
#313=EDGE_CURVE('',#286,#286,#340,.T.);
#314=EDGE_CURVE('',#287,#287,#341,.T.);
#315=EDGE_CURVE('',#288,#288,#342,.T.);
#316=EDGE_CURVE('',#289,#289,#343,.T.);
#317=EDGE_CURVE('',#290,#290,#344,.T.);
#318=EDGE_CURVE('',#291,#291,#345,.T.);
#319=EDGE_CURVE('',#292,#292,#346,.T.);
#320=EDGE_CURVE('',#293,#293,#347,.T.);
#321=EDGE_CURVE('',#294,#294,#348,.T.);
#322=EDGE_CURVE('',#295,#295,#349,.T.);
#323=EDGE_CURVE('',#296,#296,#350,.T.);
#324=EDGE_CURVE('',#297,#297,#351,.T.);
#325=EDGE_CURVE('',#298,#298,#352,.T.);
#326=EDGE_CURVE('',#299,#299,#353,.T.);
#327=EDGE_CURVE('',#300,#300,#354,.T.);
#328=EDGE_CURVE('',#301,#301,#355,.T.);
#329=EDGE_CURVE('',#302,#302,#356,.T.);
#330=EDGE_CURVE('',#303,#303,#357,.T.);
#331=EDGE_CURVE('',#304,#304,#358,.T.);
#332=CIRCLE('',#360,3.625);
#333=CIRCLE('',#361,3.225);
#334=CIRCLE('',#363,2.94437791603054);
#335=CIRCLE('',#364,3.55);
#336=CIRCLE('',#366,2.94437791603008);
#337=CIRCLE('',#367,3.54999999999999);
#338=CIRCLE('',#369,2.49013770290094);
#339=CIRCLE('',#370,2.125);
#340=CIRCLE('',#372,3.30550450996167);
#341=CIRCLE('',#374,3.62499999999999);
#342=CIRCLE('',#376,3.625);
#343=CIRCLE('',#378,2.90564782869782);
#344=CIRCLE('',#380,3.30550450996167);
#345=CIRCLE('',#382,3.625);
#346=CIRCLE('',#384,3.625);
#347=CIRCLE('',#386,2.90564782869829);
#348=CIRCLE('',#388,3.30550450996168);
#349=CIRCLE('',#390,3.625);
#350=CIRCLE('',#393,2.925);
#351=CIRCLE('',#394,1.77735026918962);
#352=CIRCLE('',#396,1.2);
#353=CIRCLE('',#398,1.19999999999999);
#354=CIRCLE('',#400,2.125);
#355=CIRCLE('',#403,3.54999999999999);
#356=CIRCLE('',#406,3.55);
#357=CIRCLE('',#409,3.225);
#358=CIRCLE('',#411,2.925);
#359=AXIS2_PLACEMENT_3D('',#530,#416,#417);
#360=AXIS2_PLACEMENT_3D('',#531,#418,#419);
#361=AXIS2_PLACEMENT_3D('',#533,#420,#421);
#362=AXIS2_PLACEMENT_3D('',#535,#422,#423);
#363=AXIS2_PLACEMENT_3D('',#536,#424,#425);
#364=AXIS2_PLACEMENT_3D('',#538,#426,#427);
#365=AXIS2_PLACEMENT_3D('',#540,#428,#429);
#366=AXIS2_PLACEMENT_3D('',#541,#430,#431);
#367=AXIS2_PLACEMENT_3D('',#543,#432,#433);
#368=AXIS2_PLACEMENT_3D('',#545,#434,#435);
#369=AXIS2_PLACEMENT_3D('',#546,#436,#437);
#370=AXIS2_PLACEMENT_3D('',#548,#438,#439);
#371=AXIS2_PLACEMENT_3D('',#550,#440,#441);
#372=AXIS2_PLACEMENT_3D('',#551,#442,#443);
#373=AXIS2_PLACEMENT_3D('',#553,#444,#445);
#374=AXIS2_PLACEMENT_3D('',#554,#446,#447);
#375=AXIS2_PLACEMENT_3D('',#556,#448,#449);
#376=AXIS2_PLACEMENT_3D('',#557,#450,#451);
#377=AXIS2_PLACEMENT_3D('',#559,#452,#453);
#378=AXIS2_PLACEMENT_3D('',#560,#454,#455);
#379=AXIS2_PLACEMENT_3D('',#562,#456,#457);
#380=AXIS2_PLACEMENT_3D('',#563,#458,#459);
#381=AXIS2_PLACEMENT_3D('',#565,#460,#461);
#382=AXIS2_PLACEMENT_3D('',#566,#462,#463);
#383=AXIS2_PLACEMENT_3D('',#568,#464,#465);
#384=AXIS2_PLACEMENT_3D('',#569,#466,#467);
#385=AXIS2_PLACEMENT_3D('',#571,#468,#469);
#386=AXIS2_PLACEMENT_3D('',#572,#470,#471);
#387=AXIS2_PLACEMENT_3D('',#574,#472,#473);
#388=AXIS2_PLACEMENT_3D('',#575,#474,#475);
#389=AXIS2_PLACEMENT_3D('',#577,#476,#477);
#390=AXIS2_PLACEMENT_3D('',#578,#478,#479);
#391=AXIS2_PLACEMENT_3D('',#580,#480,#481);
#392=AXIS2_PLACEMENT_3D('',#581,#482,#483);
#393=AXIS2_PLACEMENT_3D('',#582,#484,#485);
#394=AXIS2_PLACEMENT_3D('',#584,#486,#487);
#395=AXIS2_PLACEMENT_3D('',#586,#488,#489);
#396=AXIS2_PLACEMENT_3D('',#587,#490,#491);
#397=AXIS2_PLACEMENT_3D('',#589,#492,#493);
#398=AXIS2_PLACEMENT_3D('',#590,#494,#495);
#399=AXIS2_PLACEMENT_3D('',#592,#496,#497);
#400=AXIS2_PLACEMENT_3D('',#593,#498,#499);
#401=AXIS2_PLACEMENT_3D('',#595,#500,#501);
#402=AXIS2_PLACEMENT_3D('',#596,#502,#503);
#403=AXIS2_PLACEMENT_3D('',#597,#504,#505);
#404=AXIS2_PLACEMENT_3D('',#599,#506,#507);
#405=AXIS2_PLACEMENT_3D('',#600,#508,#509);
#406=AXIS2_PLACEMENT_3D('',#601,#510,#511);
#407=AXIS2_PLACEMENT_3D('',#603,#512,#513);
#408=AXIS2_PLACEMENT_3D('',#604,#514,#515);
#409=AXIS2_PLACEMENT_3D('',#605,#516,#517);
#410=AXIS2_PLACEMENT_3D('',#607,#518,#519);
#411=AXIS2_PLACEMENT_3D('',#608,#520,#521);
#412=AXIS2_PLACEMENT_3D('',#610,#522,#523);
#413=AXIS2_PLACEMENT_3D('',#611,#524,#525);
#414=AXIS2_PLACEMENT_3D('',#612,#526,#527);
#415=AXIS2_PLACEMENT_3D('',#613,#528,#529);
#416=DIRECTION('',(0.,0.,1.));
#417=DIRECTION('',(1.,0.,0.));
#418=DIRECTION('',(0.,-1.,0.));
#419=DIRECTION('',(0.,0.,-1.));
#420=DIRECTION('',(0.,1.,0.));
#421=DIRECTION('',(0.,0.,-1.));
#422=DIRECTION('',(0.,-1.,0.));
#423=DIRECTION('',(0.,0.,-1.));
#424=DIRECTION('',(0.,-1.,0.));
#425=DIRECTION('',(0.,0.,-1.));
#426=DIRECTION('',(0.,-1.,0.));
#427=DIRECTION('',(0.,0.,-1.));
#428=DIRECTION('',(0.,-1.,0.));
#429=DIRECTION('',(0.,0.,-1.));
#430=DIRECTION('',(0.,-1.,0.));
#431=DIRECTION('',(0.,0.,-1.));
#432=DIRECTION('',(0.,-1.,0.));
#433=DIRECTION('',(0.,0.,-1.));
#434=DIRECTION('',(0.,-1.,0.));
#435=DIRECTION('',(0.,0.,-1.));
#436=DIRECTION('',(0.,-1.,0.));
#437=DIRECTION('',(0.,0.,-1.));
#438=DIRECTION('',(0.,-1.,0.));
#439=DIRECTION('',(0.,0.,-1.));
#440=DIRECTION('',(0.,-1.,0.));
#441=DIRECTION('',(0.,0.,-1.));
#442=DIRECTION('',(0.,-1.,0.));
#443=DIRECTION('',(0.,0.,-1.));
#444=DIRECTION('',(0.,1.,0.));
#445=DIRECTION('',(0.,6.90396896123279E-18,1.));
#446=DIRECTION('',(0.,-1.,0.));
#447=DIRECTION('',(0.,0.,-1.));
#448=DIRECTION('',(0.,-1.,0.));
#449=DIRECTION('',(0.,0.,-1.));
#450=DIRECTION('',(0.,-1.,0.));
#451=DIRECTION('',(0.,0.,-1.));
#452=DIRECTION('',(0.,-1.,0.));
#453=DIRECTION('',(0.,0.,-1.));
#454=DIRECTION('',(0.,-1.,0.));
#455=DIRECTION('',(0.,0.,-1.));
#456=DIRECTION('',(0.,-1.,0.));
#457=DIRECTION('',(0.,0.,-1.));
#458=DIRECTION('',(0.,-1.,0.));
#459=DIRECTION('',(0.,0.,-1.));
#460=DIRECTION('',(0.,1.,0.));
#461=DIRECTION('',(0.,7.20717818302198E-18,1.));
#462=DIRECTION('',(0.,-1.,0.));
#463=DIRECTION('',(0.,0.,-1.));
#464=DIRECTION('',(0.,-1.,0.));
#465=DIRECTION('',(0.,0.,-1.));
#466=DIRECTION('',(0.,-1.,0.));
#467=DIRECTION('',(0.,0.,-1.));
#468=DIRECTION('',(0.,-1.,0.));
#469=DIRECTION('',(0.,0.,-1.));
#470=DIRECTION('',(0.,-1.,0.));
#471=DIRECTION('',(0.,0.,-1.));
#472=DIRECTION('',(0.,-1.,0.));
#473=DIRECTION('',(0.,0.,-1.));
#474=DIRECTION('',(0.,-1.,0.));
#475=DIRECTION('',(0.,0.,-1.));
#476=DIRECTION('',(0.,1.,0.));
#477=DIRECTION('',(0.,-2.35181603867012E-18,1.));
#478=DIRECTION('',(0.,-1.,0.));
#479=DIRECTION('',(0.,0.,-1.));
#480=DIRECTION('',(0.,-1.,0.));
#481=DIRECTION('',(0.,0.,-1.));
#482=DIRECTION('',(0.,-1.,0.));
#483=DIRECTION('',(0.,0.,-1.));
#484=DIRECTION('',(0.,1.,0.));
#485=DIRECTION('',(1.,0.,6.12323399573677E-17));
#486=DIRECTION('',(0.,-1.,0.));
#487=DIRECTION('',(0.,0.,-1.));
#488=DIRECTION('',(0.,-1.,0.));
#489=DIRECTION('',(0.,0.,-1.));
#490=DIRECTION('',(0.,-1.,0.));
#491=DIRECTION('',(0.,0.,-1.));
#492=DIRECTION('',(0.,1.,0.));
#493=DIRECTION('',(0.,-7.04623329318568E-17,1.));
#494=DIRECTION('',(0.,-1.,0.));
#495=DIRECTION('',(0.,0.,-1.));
#496=DIRECTION('',(0.,-1.,0.));
#497=DIRECTION('',(0.,0.,-1.));
#498=DIRECTION('',(0.,-1.,0.));
#499=DIRECTION('',(0.,0.,-1.));
#500=DIRECTION('',(0.,-1.,0.));
#501=DIRECTION('',(0.,0.,-1.));
#502=DIRECTION('',(0.,-1.,0.));
#503=DIRECTION('',(0.,0.,-1.));
#504=DIRECTION('',(0.,-1.,0.));
#505=DIRECTION('',(0.,0.,-1.));
#506=DIRECTION('',(0.,-1.,0.));
#507=DIRECTION('',(0.,0.,-1.));
#508=DIRECTION('',(0.,-1.,0.));
#509=DIRECTION('',(0.,0.,-1.));
#510=DIRECTION('',(0.,-1.,0.));
#511=DIRECTION('',(0.,0.,-1.));
#512=DIRECTION('',(0.,-1.,0.));
#513=DIRECTION('',(0.,0.,-1.));
#514=DIRECTION('',(0.,-1.,0.));
#515=DIRECTION('',(0.,0.,-1.));
#516=DIRECTION('',(0.,1.,0.));
#517=DIRECTION('',(1.,0.,6.12323399573677E-17));
#518=DIRECTION('',(0.,-1.,0.));
#519=DIRECTION('',(0.,0.,-1.));
#520=DIRECTION('',(0.,1.,0.));
#521=DIRECTION('',(1.,0.,6.12323399573677E-17));
#522=DIRECTION('',(0.,-1.,0.));
#523=DIRECTION('',(0.,0.,-1.));
#524=DIRECTION('',(0.,1.,0.));
#525=DIRECTION('',(0.,0.,1.));
#526=DIRECTION('',(0.,0.,1.));
#527=DIRECTION('',(1.,0.,0.));
#528=DIRECTION('',(0.,0.,1.));
#529=DIRECTION('',(1.,0.,0.));
#530=CARTESIAN_POINT('',(0.,0.,0.));
#531=CARTESIAN_POINT('',(0.,7.49999999999999,0.));
#532=CARTESIAN_POINT('',(0.,7.49999999999999,-3.625));
#533=CARTESIAN_POINT('',(0.,7.49999999999999,0.));
#534=CARTESIAN_POINT('',(0.,7.49999999999999,-3.225));
#535=CARTESIAN_POINT('',(0.,7.49999999999999,1.77735026918962));
#536=CARTESIAN_POINT('',(0.,5.85,0.));
#537=CARTESIAN_POINT('',(0.,5.85,-2.94437791603054));
#538=CARTESIAN_POINT('',(0.,5.84999999999999,0.));
#539=CARTESIAN_POINT('',(0.,5.84999999999999,-3.55));
#540=CARTESIAN_POINT('',(0.,5.84999999999999,2.94437791603054));
#541=CARTESIAN_POINT('',(0.,4.2,0.));
#542=CARTESIAN_POINT('',(0.,4.2,-2.94437791603008));
#543=CARTESIAN_POINT('',(0.,4.2,0.));
#544=CARTESIAN_POINT('',(0.,4.2,-3.54999999999999));
#545=CARTESIAN_POINT('',(0.,4.2,2.94437791603008));
#546=CARTESIAN_POINT('',(0.,3.40071241434084,0.));
#547=CARTESIAN_POINT('',(0.,3.40071241434084,-2.49013770290094));
#548=CARTESIAN_POINT('',(0.,3.00223453510415,0.));
#549=CARTESIAN_POINT('',(0.,3.00223453510415,-2.125));
#550=CARTESIAN_POINT('',(0.,3.00223453510415,0.));
#551=CARTESIAN_POINT('',(0.,3.47204776657399,0.));
#552=CARTESIAN_POINT('',(0.,3.47204776657399,-3.30550450996167));
#553=CARTESIAN_POINT('',(0.,3.40071241434084,0.));
#554=CARTESIAN_POINT('',(0.,3.8207159109061,0.));
#555=CARTESIAN_POINT('',(0.,3.8207159109061,-3.62499999999999));
#556=CARTESIAN_POINT('',(0.,3.8207159109061,0.));
#557=CARTESIAN_POINT('',(0.,4.125,0.));
#558=CARTESIAN_POINT('',(0.,4.125,-3.625));
#559=CARTESIAN_POINT('',(0.,0.,0.));
#560=CARTESIAN_POINT('',(0.,5.0870648399283,0.));
#561=CARTESIAN_POINT('',(0.,5.0870648399283,-2.90564782869782));
#562=CARTESIAN_POINT('',(0.,4.64437791603008,0.));
#563=CARTESIAN_POINT('',(0.,5.12204776657398,0.));
#564=CARTESIAN_POINT('',(0.,5.12204776657398,-3.30550450996167));
#565=CARTESIAN_POINT('',(0.,5.0870648399283,0.));
#566=CARTESIAN_POINT('',(0.,5.47071591090609,0.));
#567=CARTESIAN_POINT('',(0.,5.47071591090609,-3.625));
#568=CARTESIAN_POINT('',(0.,5.47071591090609,0.));
#569=CARTESIAN_POINT('',(0.,5.77499999999999,0.));
#570=CARTESIAN_POINT('',(0.,5.77499999999999,-3.625));
#571=CARTESIAN_POINT('',(0.,0.,0.));
#572=CARTESIAN_POINT('',(0.,6.73706483992834,0.));
#573=CARTESIAN_POINT('',(0.,6.73706483992834,-2.90564782869829));
#574=CARTESIAN_POINT('',(0.,6.29437791603007,0.));
#575=CARTESIAN_POINT('',(0.,6.77204776657398,0.));
#576=CARTESIAN_POINT('',(0.,6.77204776657398,-3.30550450996168));
#577=CARTESIAN_POINT('',(0.,6.73706483992834,0.));
#578=CARTESIAN_POINT('',(0.,7.12071591090609,0.));
#579=CARTESIAN_POINT('',(0.,7.12071591090609,-3.625));
#580=CARTESIAN_POINT('',(0.,7.12071591090609,0.));
#581=CARTESIAN_POINT('',(0.,0.,0.));
#582=CARTESIAN_POINT('',(0.,7.49999999999998,0.));
#583=CARTESIAN_POINT('',(2.925,7.49999999999998,1.791045943753E-16));
#584=CARTESIAN_POINT('',(0.,7.49999999999999,0.));
#585=CARTESIAN_POINT('',(0.,7.49999999999999,-1.77735026918962));
#586=CARTESIAN_POINT('',(0.,7.49999999999999,1.77735026918962));
#587=CARTESIAN_POINT('',(0.,6.49999999999999,0.));
#588=CARTESIAN_POINT('',(0.,6.49999999999999,-1.2));
#589=CARTESIAN_POINT('',(0.,6.49999999999999,0.));
#590=CARTESIAN_POINT('',(0.,0.,0.));
#591=CARTESIAN_POINT('',(0.,0.,-1.19999999999999));
#592=CARTESIAN_POINT('',(0.,0.,0.));
#593=CARTESIAN_POINT('',(0.,0.,0.));
#594=CARTESIAN_POINT('',(0.,0.,-2.125));
#595=CARTESIAN_POINT('',(0.,0.,1.19999999999999));
#596=CARTESIAN_POINT('',(0.,0.,0.));
#597=CARTESIAN_POINT('',(0.,4.125,0.));
#598=CARTESIAN_POINT('',(0.,4.125,-3.54999999999999));
#599=CARTESIAN_POINT('',(4.53977987084787E-15,4.125,3.54999999999999));
#600=CARTESIAN_POINT('',(0.,0.,0.));
#601=CARTESIAN_POINT('',(0.,5.77499999999999,0.));
#602=CARTESIAN_POINT('',(0.,5.77499999999999,-3.55));
#603=CARTESIAN_POINT('',(0.,0.,0.));
#604=CARTESIAN_POINT('',(4.53977987084787E-15,5.77499999999999,3.55));
#605=CARTESIAN_POINT('',(0.,7.56999999999998,0.));
#606=CARTESIAN_POINT('',(3.225,7.56999999999998,1.97474296362511E-16));
#607=CARTESIAN_POINT('',(0.,7.56999999999998,0.));
#608=CARTESIAN_POINT('',(0.,7.56999999999998,0.));
#609=CARTESIAN_POINT('',(2.925,7.56999999999998,1.791045943753E-16));
#610=CARTESIAN_POINT('',(0.,7.56999999999998,0.));
#611=CARTESIAN_POINT('',(0.,7.56999999999998,0.));
#612=CARTESIAN_POINT('',(0.,0.,0.));
#613=CARTESIAN_POINT('',(0.,0.,0.));
#614=MECHANICAL_DESIGN_GEOMETRIC_PRESENTATION_REPRESENTATION('',(#52),#617);
#615=(
GEOMETRIC_REPRESENTATION_CONTEXT(3)
GLOBAL_UNCERTAINTY_ASSIGNED_CONTEXT((#618))
GLOBAL_UNIT_ASSIGNED_CONTEXT((#626,#622,#621))
REPRESENTATION_CONTEXT('5359','TOP_LEVEL_ASSEMBLY_PART')
);
#616=(
GEOMETRIC_REPRESENTATION_CONTEXT(3)
GLOBAL_UNCERTAINTY_ASSIGNED_CONTEXT((#619))
GLOBAL_UNIT_ASSIGNED_CONTEXT((#626,#622,#621))
REPRESENTATION_CONTEXT('15324980_01AD-SEAL_PART','COMPONENT_PART')
);
#617=(
GEOMETRIC_REPRESENTATION_CONTEXT(3)
GLOBAL_UNCERTAINTY_ASSIGNED_CONTEXT((#620))
GLOBAL_UNIT_ASSIGNED_CONTEXT((#626,#622,#621))
REPRESENTATION_CONTEXT('12010295-MLT05_00-MISC','COMPONENT_PART')
);
#618=UNCERTAINTY_MEASURE_WITH_UNIT(LENGTH_MEASURE(2.E-5),#626,
'DISTANCE_ACCURACY_VALUE','Maximum Tolerance applied to model');
#619=UNCERTAINTY_MEASURE_WITH_UNIT(LENGTH_MEASURE(2.E-5),#626,
'DISTANCE_ACCURACY_VALUE','Maximum Tolerance applied to model');
#620=UNCERTAINTY_MEASURE_WITH_UNIT(LENGTH_MEASURE(2.E-5),#626,
'DISTANCE_ACCURACY_VALUE','Maximum Tolerance applied to model');
#621=(
NAMED_UNIT(*)
SI_UNIT($,.STERADIAN.)
SOLID_ANGLE_UNIT()
);
#622=(
CONVERSION_BASED_UNIT('DEGREE',#624)
NAMED_UNIT(#623)
PLANE_ANGLE_UNIT()
);
#623=DIMENSIONAL_EXPONENTS(0.,0.,0.,0.,0.,0.,0.);
#624=PLANE_ANGLE_MEASURE_WITH_UNIT(PLANE_ANGLE_MEASURE(0.0174532925),#625);
#625=(
NAMED_UNIT(*)
PLANE_ANGLE_UNIT()
SI_UNIT($,.RADIAN.)
);
#626=(
LENGTH_UNIT()
NAMED_UNIT(*)
SI_UNIT(.MILLI.,.METRE.)
);
ENDSEC;
END-ISO-10303-21;
