ISO-10303-21;
HEADER;
/* Generated by software containing ST-Developer
 * from STEP Tools, Inc. (www.steptools.com) 
 */
/* OPTION: using custom schema-name function */

FILE_DESCRIPTION(
/* description */ (''),
/* implementation_level */ '2;1');

FILE_NAME(
/* name */ '12052388.stp',
/* time_stamp */ '2020-05-11T10:24:56+08:00',
/* author */ (''),
/* organization */ (''),
/* preprocessor_version */ 'ST-DEVELOPER v16',
/* originating_system */ 'SIEMENS PLM Software NX 11.0',
/* authorisation */ '');

FILE_SCHEMA (('AUTOMOTIVE_DESIGN { 1 0 10303 214 3 1 1 1 }'));
ENDSEC;

DATA;
#10=SHAPE_REPRESENTATION_RELATIONSHIP('None',
'relationship between 12052388_01AC-SEAL-None and 12052388_01AC-SEAL-N
one',#22,#11);
#11=ADVANCED_BREP_SHAPE_REPRESENTATION('12052388_01AC-SEAL-None',(#32),
#699);
#12=SHAPE_DEFINITION_REPRESENTATION(#13,#22);
#13=PRODUCT_DEFINITION_SHAPE('','',#14);
#14=PRODUCT_DEFINITION(' ','',#16,#15);
#15=PRODUCT_DEFINITION_CONTEXT('part definition',#21,'design');
#16=PRODUCT_DEFINITION_FORMATION_WITH_SPECIFIED_SOURCE(' ',' ',#18,
 .NOT_KNOWN.);
#17=PRODUCT_RELATED_PRODUCT_CATEGORY('part','',(#18));
#18=PRODUCT('12052388_01AC-SEAL','12052388_01AC-SEAL',' ',(#19));
#19=PRODUCT_CONTEXT(' ',#21,'mechanical');
#20=APPLICATION_PROTOCOL_DEFINITION('international standard',
'automotive_design',2010,#21);
#21=APPLICATION_CONTEXT(
'core data for automotive mechanical design processes');
#22=SHAPE_REPRESENTATION('12052388_01AC-SEAL-None',(#397),#699);
#23=PRESENTATION_LAYER_ASSIGNMENT('101','Layer 101',(#32));
#24=STYLED_ITEM('',(#25),#32);
#25=PRESENTATION_STYLE_ASSIGNMENT((#26));
#26=SURFACE_STYLE_USAGE(.BOTH.,#27);
#27=SURFACE_SIDE_STYLE('',(#28));
#28=SURFACE_STYLE_FILL_AREA(#29);
#29=FILL_AREA_STYLE('',(#30));
#30=FILL_AREA_STYLE_COLOUR('',#31);
#31=DRAUGHTING_PRE_DEFINED_COLOUR('red');
#32=MANIFOLD_SOLID_BREP('',#33);
#33=CLOSED_SHELL('',(#60,#61,#62,#63,#64,#65,#66,#67,#68,#69,#70,#71,#72,
#73,#74,#75,#76,#77,#78,#79,#80,#81,#82,#83,#84,#85,#86,#87,#88,#89,#90,
#91,#92));
#34=TOROIDAL_SURFACE('',#450,4.825,0.35);
#35=TOROIDAL_SURFACE('',#451,4.825,0.35);
#36=TOROIDAL_SURFACE('',#452,4.825,0.35);
#37=TOROIDAL_SURFACE('',#453,3.4,0.4);
#38=TOROIDAL_SURFACE('',#454,1.075,0.3);
#39=TOROIDAL_SURFACE('',#455,0.843441866563719,0.3);
#40=TOROIDAL_SURFACE('',#456,1.10655813343628,0.3);
#41=TOROIDAL_SURFACE('',#457,0.843441866563719,0.3);
#42=TOROIDAL_SURFACE('',#458,1.11322759891887,0.3);
#43=TOROIDAL_SURFACE('',#459,4.42985607841556,0.379856078415555);
#44=TOROIDAL_SURFACE('',#460,4.42985607841556,0.379856078415555);
#45=TOROIDAL_SURFACE('',#461,4.42985607841556,0.379856078415555);
#46=TOROIDAL_SURFACE('',#462,4.42985607841556,0.379856078415555);
#47=TOROIDAL_SURFACE('',#463,1.98743556529822,0.5);
#48=CONICAL_SURFACE('',#412,5.175,84.9999999999999);
#49=CONICAL_SURFACE('',#418,4.05,84.9999999999999);
#50=CONICAL_SURFACE('',#423,5.175,85.);
#51=CONICAL_SURFACE('',#429,4.05,85.0000000000001);
#52=CONICAL_SURFACE('',#437,1.6987604307034,30.);
#53=CONICAL_SURFACE('',#440,0.775,25.2011236454751);
#54=CONICAL_SURFACE('',#443,1.175,25.2011236454751);
#55=CONICAL_SURFACE('',#446,0.775,25.2011236454751);
#56=CONICAL_SURFACE('',#449,1.175,25.2011236454751);
#57=PLANE('',#402);
#58=PLANE('',#407);
#59=PLANE('',#434);
#60=ADVANCED_FACE('',(#100,#101),#93,.F.);
#61=ADVANCED_FACE('',(#102,#103),#57,.F.);
#62=ADVANCED_FACE('',(#104,#105),#94,.T.);
#63=ADVANCED_FACE('',(#106,#107),#58,.F.);
#64=ADVANCED_FACE('',(#108,#109),#95,.T.);
#65=ADVANCED_FACE('',(#110,#111),#48,.T.);
#66=ADVANCED_FACE('',(#112,#113),#96,.T.);
#67=ADVANCED_FACE('',(#114,#115),#49,.T.);
#68=ADVANCED_FACE('',(#116,#117),#97,.T.);
#69=ADVANCED_FACE('',(#118,#119),#50,.T.);
#70=ADVANCED_FACE('',(#120,#121),#98,.T.);
#71=ADVANCED_FACE('',(#122,#123),#51,.T.);
#72=ADVANCED_FACE('',(#124,#125),#99,.T.);
#73=ADVANCED_FACE('',(#126,#127),#59,.F.);
#74=ADVANCED_FACE('',(#128,#129),#52,.F.);
#75=ADVANCED_FACE('',(#130,#131),#53,.F.);
#76=ADVANCED_FACE('',(#132,#133),#54,.F.);
#77=ADVANCED_FACE('',(#134,#135),#55,.F.);
#78=ADVANCED_FACE('',(#136,#137),#56,.F.);
#79=ADVANCED_FACE('',(#138,#139),#34,.T.);
#80=ADVANCED_FACE('',(#140,#141),#35,.T.);
#81=ADVANCED_FACE('',(#142,#143),#36,.T.);
#82=ADVANCED_FACE('',(#144,#145),#37,.F.);
#83=ADVANCED_FACE('',(#146,#147),#38,.T.);
#84=ADVANCED_FACE('',(#148,#149),#39,.F.);
#85=ADVANCED_FACE('',(#150,#151),#40,.T.);
#86=ADVANCED_FACE('',(#152,#153),#41,.F.);
#87=ADVANCED_FACE('',(#154,#155),#42,.T.);
#88=ADVANCED_FACE('',(#156,#157),#43,.F.);
#89=ADVANCED_FACE('',(#158,#159),#44,.F.);
#90=ADVANCED_FACE('',(#160,#161),#45,.F.);
#91=ADVANCED_FACE('',(#162,#163),#46,.F.);
#92=ADVANCED_FACE('',(#164,#165),#47,.T.);
#93=CYLINDRICAL_SURFACE('',#400,0.775);
#94=CYLINDRICAL_SURFACE('',#404,3.);
#95=CYLINDRICAL_SURFACE('',#410,5.175);
#96=CYLINDRICAL_SURFACE('',#415,4.05);
#97=CYLINDRICAL_SURFACE('',#421,5.175);
#98=CYLINDRICAL_SURFACE('',#426,4.05);
#99=CYLINDRICAL_SURFACE('',#432,5.175);
#100=FACE_BOUND('',#166,.T.);
#101=FACE_BOUND('',#167,.T.);
#102=FACE_BOUND('',#168,.T.);
#103=FACE_BOUND('',#169,.T.);
#104=FACE_BOUND('',#170,.T.);
#105=FACE_BOUND('',#171,.T.);
#106=FACE_BOUND('',#172,.T.);
#107=FACE_BOUND('',#173,.T.);
#108=FACE_BOUND('',#174,.T.);
#109=FACE_BOUND('',#175,.T.);
#110=FACE_BOUND('',#176,.T.);
#111=FACE_BOUND('',#177,.T.);
#112=FACE_BOUND('',#178,.T.);
#113=FACE_BOUND('',#179,.T.);
#114=FACE_BOUND('',#180,.T.);
#115=FACE_BOUND('',#181,.T.);
#116=FACE_BOUND('',#182,.T.);
#117=FACE_BOUND('',#183,.T.);
#118=FACE_BOUND('',#184,.T.);
#119=FACE_BOUND('',#185,.T.);
#120=FACE_BOUND('',#186,.T.);
#121=FACE_BOUND('',#187,.T.);
#122=FACE_BOUND('',#188,.T.);
#123=FACE_BOUND('',#189,.T.);
#124=FACE_BOUND('',#190,.T.);
#125=FACE_BOUND('',#191,.T.);
#126=FACE_BOUND('',#192,.T.);
#127=FACE_BOUND('',#193,.T.);
#128=FACE_BOUND('',#194,.T.);
#129=FACE_BOUND('',#195,.T.);
#130=FACE_BOUND('',#196,.T.);
#131=FACE_BOUND('',#197,.T.);
#132=FACE_BOUND('',#198,.T.);
#133=FACE_BOUND('',#199,.T.);
#134=FACE_BOUND('',#200,.T.);
#135=FACE_BOUND('',#201,.T.);
#136=FACE_BOUND('',#202,.T.);
#137=FACE_BOUND('',#203,.T.);
#138=FACE_BOUND('',#204,.T.);
#139=FACE_BOUND('',#205,.T.);
#140=FACE_BOUND('',#206,.T.);
#141=FACE_BOUND('',#207,.T.);
#142=FACE_BOUND('',#208,.T.);
#143=FACE_BOUND('',#209,.T.);
#144=FACE_BOUND('',#210,.T.);
#145=FACE_BOUND('',#211,.T.);
#146=FACE_BOUND('',#212,.T.);
#147=FACE_BOUND('',#213,.T.);
#148=FACE_BOUND('',#214,.T.);
#149=FACE_BOUND('',#215,.T.);
#150=FACE_BOUND('',#216,.T.);
#151=FACE_BOUND('',#217,.T.);
#152=FACE_BOUND('',#218,.T.);
#153=FACE_BOUND('',#219,.T.);
#154=FACE_BOUND('',#220,.T.);
#155=FACE_BOUND('',#221,.T.);
#156=FACE_BOUND('',#222,.T.);
#157=FACE_BOUND('',#223,.T.);
#158=FACE_BOUND('',#224,.T.);
#159=FACE_BOUND('',#225,.T.);
#160=FACE_BOUND('',#226,.T.);
#161=FACE_BOUND('',#227,.T.);
#162=FACE_BOUND('',#228,.T.);
#163=FACE_BOUND('',#229,.T.);
#164=FACE_BOUND('',#230,.T.);
#165=FACE_BOUND('',#231,.T.);
#166=EDGE_LOOP('',(#232));
#167=EDGE_LOOP('',(#233));
#168=EDGE_LOOP('',(#234));
#169=EDGE_LOOP('',(#235));
#170=EDGE_LOOP('',(#236));
#171=EDGE_LOOP('',(#237));
#172=EDGE_LOOP('',(#238));
#173=EDGE_LOOP('',(#239));
#174=EDGE_LOOP('',(#240));
#175=EDGE_LOOP('',(#241));
#176=EDGE_LOOP('',(#242));
#177=EDGE_LOOP('',(#243));
#178=EDGE_LOOP('',(#244));
#179=EDGE_LOOP('',(#245));
#180=EDGE_LOOP('',(#246));
#181=EDGE_LOOP('',(#247));
#182=EDGE_LOOP('',(#248));
#183=EDGE_LOOP('',(#249));
#184=EDGE_LOOP('',(#250));
#185=EDGE_LOOP('',(#251));
#186=EDGE_LOOP('',(#252));
#187=EDGE_LOOP('',(#253));
#188=EDGE_LOOP('',(#254));
#189=EDGE_LOOP('',(#255));
#190=EDGE_LOOP('',(#256));
#191=EDGE_LOOP('',(#257));
#192=EDGE_LOOP('',(#258));
#193=EDGE_LOOP('',(#259));
#194=EDGE_LOOP('',(#260));
#195=EDGE_LOOP('',(#261));
#196=EDGE_LOOP('',(#262));
#197=EDGE_LOOP('',(#263));
#198=EDGE_LOOP('',(#264));
#199=EDGE_LOOP('',(#265));
#200=EDGE_LOOP('',(#266));
#201=EDGE_LOOP('',(#267));
#202=EDGE_LOOP('',(#268));
#203=EDGE_LOOP('',(#269));
#204=EDGE_LOOP('',(#270));
#205=EDGE_LOOP('',(#271));
#206=EDGE_LOOP('',(#272));
#207=EDGE_LOOP('',(#273));
#208=EDGE_LOOP('',(#274));
#209=EDGE_LOOP('',(#275));
#210=EDGE_LOOP('',(#276));
#211=EDGE_LOOP('',(#277));
#212=EDGE_LOOP('',(#278));
#213=EDGE_LOOP('',(#279));
#214=EDGE_LOOP('',(#280));
#215=EDGE_LOOP('',(#281));
#216=EDGE_LOOP('',(#282));
#217=EDGE_LOOP('',(#283));
#218=EDGE_LOOP('',(#284));
#219=EDGE_LOOP('',(#285));
#220=EDGE_LOOP('',(#286));
#221=EDGE_LOOP('',(#287));
#222=EDGE_LOOP('',(#288));
#223=EDGE_LOOP('',(#289));
#224=EDGE_LOOP('',(#290));
#225=EDGE_LOOP('',(#291));
#226=EDGE_LOOP('',(#292));
#227=EDGE_LOOP('',(#293));
#228=EDGE_LOOP('',(#294));
#229=EDGE_LOOP('',(#295));
#230=EDGE_LOOP('',(#296));
#231=EDGE_LOOP('',(#297));
#232=ORIENTED_EDGE('',*,*,#331,.T.);
#233=ORIENTED_EDGE('',*,*,#332,.F.);
#234=ORIENTED_EDGE('',*,*,#333,.F.);
#235=ORIENTED_EDGE('',*,*,#332,.T.);
#236=ORIENTED_EDGE('',*,*,#334,.T.);
#237=ORIENTED_EDGE('',*,*,#333,.T.);
#238=ORIENTED_EDGE('',*,*,#335,.T.);
#239=ORIENTED_EDGE('',*,*,#336,.T.);
#240=ORIENTED_EDGE('',*,*,#337,.T.);
#241=ORIENTED_EDGE('',*,*,#338,.F.);
#242=ORIENTED_EDGE('',*,*,#339,.T.);
#243=ORIENTED_EDGE('',*,*,#338,.T.);
#244=ORIENTED_EDGE('',*,*,#340,.T.);
#245=ORIENTED_EDGE('',*,*,#341,.T.);
#246=ORIENTED_EDGE('',*,*,#342,.T.);
#247=ORIENTED_EDGE('',*,*,#343,.T.);
#248=ORIENTED_EDGE('',*,*,#344,.T.);
#249=ORIENTED_EDGE('',*,*,#345,.F.);
#250=ORIENTED_EDGE('',*,*,#346,.T.);
#251=ORIENTED_EDGE('',*,*,#345,.T.);
#252=ORIENTED_EDGE('',*,*,#347,.T.);
#253=ORIENTED_EDGE('',*,*,#348,.T.);
#254=ORIENTED_EDGE('',*,*,#349,.T.);
#255=ORIENTED_EDGE('',*,*,#350,.T.);
#256=ORIENTED_EDGE('',*,*,#351,.T.);
#257=ORIENTED_EDGE('',*,*,#352,.F.);
#258=ORIENTED_EDGE('',*,*,#353,.T.);
#259=ORIENTED_EDGE('',*,*,#352,.T.);
#260=ORIENTED_EDGE('',*,*,#354,.T.);
#261=ORIENTED_EDGE('',*,*,#355,.T.);
#262=ORIENTED_EDGE('',*,*,#356,.T.);
#263=ORIENTED_EDGE('',*,*,#357,.T.);
#264=ORIENTED_EDGE('',*,*,#358,.T.);
#265=ORIENTED_EDGE('',*,*,#359,.T.);
#266=ORIENTED_EDGE('',*,*,#360,.T.);
#267=ORIENTED_EDGE('',*,*,#361,.T.);
#268=ORIENTED_EDGE('',*,*,#362,.T.);
#269=ORIENTED_EDGE('',*,*,#363,.T.);
#270=ORIENTED_EDGE('',*,*,#350,.F.);
#271=ORIENTED_EDGE('',*,*,#351,.F.);
#272=ORIENTED_EDGE('',*,*,#343,.F.);
#273=ORIENTED_EDGE('',*,*,#344,.F.);
#274=ORIENTED_EDGE('',*,*,#336,.F.);
#275=ORIENTED_EDGE('',*,*,#337,.F.);
#276=ORIENTED_EDGE('',*,*,#334,.F.);
#277=ORIENTED_EDGE('',*,*,#335,.F.);
#278=ORIENTED_EDGE('',*,*,#362,.F.);
#279=ORIENTED_EDGE('',*,*,#331,.F.);
#280=ORIENTED_EDGE('',*,*,#360,.F.);
#281=ORIENTED_EDGE('',*,*,#363,.F.);
#282=ORIENTED_EDGE('',*,*,#358,.F.);
#283=ORIENTED_EDGE('',*,*,#361,.F.);
#284=ORIENTED_EDGE('',*,*,#356,.F.);
#285=ORIENTED_EDGE('',*,*,#359,.F.);
#286=ORIENTED_EDGE('',*,*,#355,.F.);
#287=ORIENTED_EDGE('',*,*,#357,.F.);
#288=ORIENTED_EDGE('',*,*,#346,.F.);
#289=ORIENTED_EDGE('',*,*,#347,.F.);
#290=ORIENTED_EDGE('',*,*,#348,.F.);
#291=ORIENTED_EDGE('',*,*,#349,.F.);
#292=ORIENTED_EDGE('',*,*,#339,.F.);
#293=ORIENTED_EDGE('',*,*,#340,.F.);
#294=ORIENTED_EDGE('',*,*,#341,.F.);
#295=ORIENTED_EDGE('',*,*,#342,.F.);
#296=ORIENTED_EDGE('',*,*,#353,.F.);
#297=ORIENTED_EDGE('',*,*,#354,.F.);
#298=VERTEX_POINT('',#600);
#299=VERTEX_POINT('',#602);
#300=VERTEX_POINT('',#605);
#301=VERTEX_POINT('',#608);
#302=VERTEX_POINT('',#611);
#303=VERTEX_POINT('',#613);
#304=VERTEX_POINT('',#616);
#305=VERTEX_POINT('',#618);
#306=VERTEX_POINT('',#621);
#307=VERTEX_POINT('',#624);
#308=VERTEX_POINT('',#626);
#309=VERTEX_POINT('',#629);
#310=VERTEX_POINT('',#631);
#311=VERTEX_POINT('',#634);
#312=VERTEX_POINT('',#636);
#313=VERTEX_POINT('',#639);
#314=VERTEX_POINT('',#642);
#315=VERTEX_POINT('',#644);
#316=VERTEX_POINT('',#647);
#317=VERTEX_POINT('',#649);
#318=VERTEX_POINT('',#652);
#319=VERTEX_POINT('',#654);
#320=VERTEX_POINT('',#657);
#321=VERTEX_POINT('',#660);
#322=VERTEX_POINT('',#662);
#323=VERTEX_POINT('',#665);
#324=VERTEX_POINT('',#667);
#325=VERTEX_POINT('',#670);
#326=VERTEX_POINT('',#672);
#327=VERTEX_POINT('',#675);
#328=VERTEX_POINT('',#677);
#329=VERTEX_POINT('',#680);
#330=VERTEX_POINT('',#682);
#331=EDGE_CURVE('',#298,#298,#364,.T.);
#332=EDGE_CURVE('',#299,#299,#365,.T.);
#333=EDGE_CURVE('',#300,#300,#366,.T.);
#334=EDGE_CURVE('',#301,#301,#367,.T.);
#335=EDGE_CURVE('',#302,#302,#368,.T.);
#336=EDGE_CURVE('',#303,#303,#369,.T.);
#337=EDGE_CURVE('',#304,#304,#370,.T.);
#338=EDGE_CURVE('',#305,#305,#371,.T.);
#339=EDGE_CURVE('',#306,#306,#372,.T.);
#340=EDGE_CURVE('',#307,#307,#373,.T.);
#341=EDGE_CURVE('',#308,#308,#374,.T.);
#342=EDGE_CURVE('',#309,#309,#375,.T.);
#343=EDGE_CURVE('',#310,#310,#376,.T.);
#344=EDGE_CURVE('',#311,#311,#377,.T.);
#345=EDGE_CURVE('',#312,#312,#378,.T.);
#346=EDGE_CURVE('',#313,#313,#379,.T.);
#347=EDGE_CURVE('',#314,#314,#380,.T.);
#348=EDGE_CURVE('',#315,#315,#381,.T.);
#349=EDGE_CURVE('',#316,#316,#382,.T.);
#350=EDGE_CURVE('',#317,#317,#383,.T.);
#351=EDGE_CURVE('',#318,#318,#384,.T.);
#352=EDGE_CURVE('',#319,#319,#385,.T.);
#353=EDGE_CURVE('',#320,#320,#386,.T.);
#354=EDGE_CURVE('',#321,#321,#387,.T.);
#355=EDGE_CURVE('',#322,#322,#388,.T.);
#356=EDGE_CURVE('',#323,#323,#389,.T.);
#357=EDGE_CURVE('',#324,#324,#390,.T.);
#358=EDGE_CURVE('',#325,#325,#391,.T.);
#359=EDGE_CURVE('',#326,#326,#392,.T.);
#360=EDGE_CURVE('',#327,#327,#393,.T.);
#361=EDGE_CURVE('',#328,#328,#394,.T.);
#362=EDGE_CURVE('',#329,#329,#395,.T.);
#363=EDGE_CURVE('',#330,#330,#396,.T.);
#364=CIRCLE('',#398,0.775);
#365=CIRCLE('',#399,0.775);
#366=CIRCLE('',#401,3.);
#367=CIRCLE('',#403,3.);
#368=CIRCLE('',#405,3.4);
#369=CIRCLE('',#406,4.825);
#370=CIRCLE('',#408,5.175);
#371=CIRCLE('',#409,5.175);
#372=CIRCLE('',#411,4.39674943976403);
#373=CIRCLE('',#413,4.05);
#374=CIRCLE('',#414,4.05);
#375=CIRCLE('',#416,4.39674943976403);
#376=CIRCLE('',#417,4.85550450996168);
#377=CIRCLE('',#419,5.175);
#378=CIRCLE('',#420,5.175);
#379=CIRCLE('',#422,4.39674943976403);
#380=CIRCLE('',#424,4.05);
#381=CIRCLE('',#425,4.05);
#382=CIRCLE('',#427,4.39674943976404);
#383=CIRCLE('',#428,4.85550450996168);
#384=CIRCLE('',#430,5.175);
#385=CIRCLE('',#431,5.175);
#386=CIRCLE('',#433,1.98743556529822);
#387=CIRCLE('',#435,1.554422863406);
#388=CIRCLE('',#436,0.853419977783535);
#389=CIRCLE('',#438,1.11488747722402);
#390=CIRCLE('',#439,0.841781988258568);
#391=CIRCLE('',#441,0.835112522775983);
#392=CIRCLE('',#442,1.11488747722402);
#393=CIRCLE('',#444,1.11488747722402);
#394=CIRCLE('',#445,0.835112522775983);
#395=CIRCLE('',#447,0.803554389339701);
#396=CIRCLE('',#448,1.11488747722402);
#397=AXIS2_PLACEMENT_3D('',#598,#464,#465);
#398=AXIS2_PLACEMENT_3D('',#599,#466,#467);
#399=AXIS2_PLACEMENT_3D('',#601,#468,#469);
#400=AXIS2_PLACEMENT_3D('',#603,#470,#471);
#401=AXIS2_PLACEMENT_3D('',#604,#472,#473);
#402=AXIS2_PLACEMENT_3D('',#606,#474,#475);
#403=AXIS2_PLACEMENT_3D('',#607,#476,#477);
#404=AXIS2_PLACEMENT_3D('',#609,#478,#479);
#405=AXIS2_PLACEMENT_3D('',#610,#480,#481);
#406=AXIS2_PLACEMENT_3D('',#612,#482,#483);
#407=AXIS2_PLACEMENT_3D('',#614,#484,#485);
#408=AXIS2_PLACEMENT_3D('',#615,#486,#487);
#409=AXIS2_PLACEMENT_3D('',#617,#488,#489);
#410=AXIS2_PLACEMENT_3D('',#619,#490,#491);
#411=AXIS2_PLACEMENT_3D('',#620,#492,#493);
#412=AXIS2_PLACEMENT_3D('',#622,#494,#495);
#413=AXIS2_PLACEMENT_3D('',#623,#496,#497);
#414=AXIS2_PLACEMENT_3D('',#625,#498,#499);
#415=AXIS2_PLACEMENT_3D('',#627,#500,#501);
#416=AXIS2_PLACEMENT_3D('',#628,#502,#503);
#417=AXIS2_PLACEMENT_3D('',#630,#504,#505);
#418=AXIS2_PLACEMENT_3D('',#632,#506,#507);
#419=AXIS2_PLACEMENT_3D('',#633,#508,#509);
#420=AXIS2_PLACEMENT_3D('',#635,#510,#511);
#421=AXIS2_PLACEMENT_3D('',#637,#512,#513);
#422=AXIS2_PLACEMENT_3D('',#638,#514,#515);
#423=AXIS2_PLACEMENT_3D('',#640,#516,#517);
#424=AXIS2_PLACEMENT_3D('',#641,#518,#519);
#425=AXIS2_PLACEMENT_3D('',#643,#520,#521);
#426=AXIS2_PLACEMENT_3D('',#645,#522,#523);
#427=AXIS2_PLACEMENT_3D('',#646,#524,#525);
#428=AXIS2_PLACEMENT_3D('',#648,#526,#527);
#429=AXIS2_PLACEMENT_3D('',#650,#528,#529);
#430=AXIS2_PLACEMENT_3D('',#651,#530,#531);
#431=AXIS2_PLACEMENT_3D('',#653,#532,#533);
#432=AXIS2_PLACEMENT_3D('',#655,#534,#535);
#433=AXIS2_PLACEMENT_3D('',#656,#536,#537);
#434=AXIS2_PLACEMENT_3D('',#658,#538,#539);
#435=AXIS2_PLACEMENT_3D('',#659,#540,#541);
#436=AXIS2_PLACEMENT_3D('',#661,#542,#543);
#437=AXIS2_PLACEMENT_3D('',#663,#544,#545);
#438=AXIS2_PLACEMENT_3D('',#664,#546,#547);
#439=AXIS2_PLACEMENT_3D('',#666,#548,#549);
#440=AXIS2_PLACEMENT_3D('',#668,#550,#551);
#441=AXIS2_PLACEMENT_3D('',#669,#552,#553);
#442=AXIS2_PLACEMENT_3D('',#671,#554,#555);
#443=AXIS2_PLACEMENT_3D('',#673,#556,#557);
#444=AXIS2_PLACEMENT_3D('',#674,#558,#559);
#445=AXIS2_PLACEMENT_3D('',#676,#560,#561);
#446=AXIS2_PLACEMENT_3D('',#678,#562,#563);
#447=AXIS2_PLACEMENT_3D('',#679,#564,#565);
#448=AXIS2_PLACEMENT_3D('',#681,#566,#567);
#449=AXIS2_PLACEMENT_3D('',#683,#568,#569);
#450=AXIS2_PLACEMENT_3D('',#684,#570,#571);
#451=AXIS2_PLACEMENT_3D('',#685,#572,#573);
#452=AXIS2_PLACEMENT_3D('',#686,#574,#575);
#453=AXIS2_PLACEMENT_3D('',#687,#576,#577);
#454=AXIS2_PLACEMENT_3D('',#688,#578,#579);
#455=AXIS2_PLACEMENT_3D('',#689,#580,#581);
#456=AXIS2_PLACEMENT_3D('',#690,#582,#583);
#457=AXIS2_PLACEMENT_3D('',#691,#584,#585);
#458=AXIS2_PLACEMENT_3D('',#692,#586,#587);
#459=AXIS2_PLACEMENT_3D('',#693,#588,#589);
#460=AXIS2_PLACEMENT_3D('',#694,#590,#591);
#461=AXIS2_PLACEMENT_3D('',#695,#592,#593);
#462=AXIS2_PLACEMENT_3D('',#696,#594,#595);
#463=AXIS2_PLACEMENT_3D('',#697,#596,#597);
#464=DIRECTION('',(0.,0.,1.));
#465=DIRECTION('',(1.,0.,0.));
#466=DIRECTION('',(0.,1.,2.61228946970625E-17));
#467=DIRECTION('',(0.,0.,-1.));
#468=DIRECTION('',(0.,1.,2.61228946970625E-17));
#469=DIRECTION('',(0.,-2.61228946970625E-17,1.));
#470=DIRECTION('',(0.,1.,2.61228946970625E-17));
#471=DIRECTION('',(0.,-2.61228946970625E-17,1.));
#472=DIRECTION('',(0.,1.,2.61228946970625E-17));
#473=DIRECTION('',(0.,-2.61228946970625E-17,1.));
#474=DIRECTION('',(0.,1.,2.61228946970625E-17));
#475=DIRECTION('',(0.,-2.61228946970625E-17,1.));
#476=DIRECTION('',(0.,-1.,-2.61228946970625E-17));
#477=DIRECTION('',(0.,0.,1.));
#478=DIRECTION('',(0.,1.,2.61228946970625E-17));
#479=DIRECTION('',(0.,-2.61228946970625E-17,1.));
#480=DIRECTION('',(0.,1.,2.61228946970625E-17));
#481=DIRECTION('',(0.,0.,1.));
#482=DIRECTION('',(0.,-1.,-2.61228946970625E-17));
#483=DIRECTION('',(0.,0.,1.));
#484=DIRECTION('',(0.,1.,2.61228946970625E-17));
#485=DIRECTION('',(0.,-2.60208521396521E-17,1.));
#486=DIRECTION('',(0.,1.,2.61228946970625E-17));
#487=DIRECTION('',(0.,0.,1.));
#488=DIRECTION('',(0.,1.,2.61228946970625E-17));
#489=DIRECTION('',(0.,0.,1.));
#490=DIRECTION('',(0.,1.,2.61228946970625E-17));
#491=DIRECTION('',(0.,-2.61228946970625E-17,1.));
#492=DIRECTION('',(0.,-1.,-2.61228946970625E-17));
#493=DIRECTION('',(0.,0.,-1.));
#494=DIRECTION('',(0.,-1.,-2.61228946970625E-17));
#495=DIRECTION('',(0.,2.88988415729862E-17,-1.));
#496=DIRECTION('',(0.,1.,2.61228946970625E-17));
#497=DIRECTION('',(0.,0.,1.));
#498=DIRECTION('',(0.,-1.,-2.61228946970625E-17));
#499=DIRECTION('',(0.,0.,1.));
#500=DIRECTION('',(0.,1.,2.61228946970625E-17));
#501=DIRECTION('',(0.,-2.61228946970625E-17,1.));
#502=DIRECTION('',(0.,1.,2.61228946970625E-17));
#503=DIRECTION('',(0.,0.,1.));
#504=DIRECTION('',(0.,-1.,-2.61228946970625E-17));
#505=DIRECTION('',(0.,0.,-1.));
#506=DIRECTION('',(0.,1.,2.61228946970625E-17));
#507=DIRECTION('',(0.,-1.37301967761815E-17,1.));
#508=DIRECTION('',(0.,1.,2.61228946970625E-17));
#509=DIRECTION('',(0.,0.,-1.));
#510=DIRECTION('',(0.,1.,2.61228946970625E-17));
#511=DIRECTION('',(0.,0.,1.));
#512=DIRECTION('',(0.,1.,2.61228946970625E-17));
#513=DIRECTION('',(0.,-2.61228946970625E-17,1.));
#514=DIRECTION('',(0.,-1.,-2.61228946970625E-17));
#515=DIRECTION('',(0.,0.,-1.));
#516=DIRECTION('',(0.,-1.,-2.61228946970625E-17));
#517=DIRECTION('',(0.,3.1326040865205E-17,-1.));
#518=DIRECTION('',(0.,1.,2.61228946970625E-17));
#519=DIRECTION('',(0.,0.,1.));
#520=DIRECTION('',(0.,-1.,-2.61228946970625E-17));
#521=DIRECTION('',(0.,0.,1.));
#522=DIRECTION('',(0.,1.,2.61228946970625E-17));
#523=DIRECTION('',(0.,-2.61228946970625E-17,1.));
#524=DIRECTION('',(0.,1.,2.61228946970625E-17));
#525=DIRECTION('',(0.,0.,1.));
#526=DIRECTION('',(0.,-1.,-2.61228946970625E-17));
#527=DIRECTION('',(0.,0.,-1.));
#528=DIRECTION('',(0.,1.,2.61228946970625E-17));
#529=DIRECTION('',(0.,-2.10883685291618E-17,1.));
#530=DIRECTION('',(0.,1.,2.61228946970625E-17));
#531=DIRECTION('',(0.,0.,-1.));
#532=DIRECTION('',(0.,1.,2.61228946970625E-17));
#533=DIRECTION('',(0.,0.,1.));
#534=DIRECTION('',(0.,1.,2.61228946970625E-17));
#535=DIRECTION('',(0.,-2.61228946970625E-17,1.));
#536=DIRECTION('',(0.,-1.,-2.61228946970625E-17));
#537=DIRECTION('',(0.,0.,-1.));
#538=DIRECTION('',(0.,-1.,-2.61228946970625E-17));
#539=DIRECTION('',(0.,2.60208521396521E-17,-1.));
#540=DIRECTION('',(0.,1.,2.61228946970625E-17));
#541=DIRECTION('',(0.,0.,-1.));
#542=DIRECTION('',(0.,-1.,-2.61228946970625E-17));
#543=DIRECTION('',(0.,0.,-1.));
#544=DIRECTION('',(0.,1.,2.61228946970625E-17));
#545=DIRECTION('',(0.,1.09347229050136E-16,1.));
#546=DIRECTION('',(0.,-1.,-2.61228946970625E-17));
#547=DIRECTION('',(0.,0.,-1.));
#548=DIRECTION('',(0.,1.,2.61228946970625E-17));
#549=DIRECTION('',(0.,0.,1.));
#550=DIRECTION('',(0.,-1.,-2.61228946970625E-17));
#551=DIRECTION('',(0.,3.49621518774087E-17,-1.));
#552=DIRECTION('',(0.,-1.,-2.61228946970625E-17));
#553=DIRECTION('',(0.,0.,-1.));
#554=DIRECTION('',(0.,1.,2.61228946970625E-17));
#555=DIRECTION('',(0.,0.,1.));
#556=DIRECTION('',(0.,1.,2.61228946970625E-17));
#557=DIRECTION('',(0.,-1.8385530560635E-18,1.));
#558=DIRECTION('',(0.,-1.,-2.61228946970625E-17));
#559=DIRECTION('',(0.,0.,-1.));
#560=DIRECTION('',(0.,1.,2.61228946970625E-17));
#561=DIRECTION('',(0.,0.,1.));
#562=DIRECTION('',(0.,-1.,-2.61228946970625E-17));
#563=DIRECTION('',(0.,-4.04824916475259E-17,-1.));
#564=DIRECTION('',(0.,-1.,-2.61228946970625E-17));
#565=DIRECTION('',(0.,0.,-1.));
#566=DIRECTION('',(0.,1.,2.61228946970625E-17));
#567=DIRECTION('',(0.,0.,1.));
#568=DIRECTION('',(0.,1.,2.61228946970625E-17));
#569=DIRECTION('',(0.,-7.7219228354667E-17,1.));
#570=DIRECTION('',(0.,-1.,-2.61228946970625E-17));
#571=DIRECTION('',(0.,0.,-1.));
#572=DIRECTION('',(0.,-1.,-2.61228946970625E-17));
#573=DIRECTION('',(0.,0.,-1.));
#574=DIRECTION('',(0.,1.,2.61228946970625E-17));
#575=DIRECTION('',(0.,0.,1.));
#576=DIRECTION('',(0.,1.,2.61228946970625E-17));
#577=DIRECTION('',(0.,0.,1.));
#578=DIRECTION('',(0.,-1.,-2.61228946970625E-17));
#579=DIRECTION('',(0.,0.,-1.));
#580=DIRECTION('',(0.,1.,2.61228946970625E-17));
#581=DIRECTION('',(0.,0.,1.));
#582=DIRECTION('',(0.,-1.,-2.61228946970625E-17));
#583=DIRECTION('',(0.,0.,-1.));
#584=DIRECTION('',(0.,1.,2.61228946970625E-17));
#585=DIRECTION('',(0.,0.,1.));
#586=DIRECTION('',(0.,-1.,-2.61228946970625E-17));
#587=DIRECTION('',(0.,0.,-1.));
#588=DIRECTION('',(0.,1.,2.61228946970625E-17));
#589=DIRECTION('',(0.,0.,1.));
#590=DIRECTION('',(0.,1.,2.61228946970625E-17));
#591=DIRECTION('',(0.,0.,1.));
#592=DIRECTION('',(0.,1.,2.61228946970625E-17));
#593=DIRECTION('',(0.,0.,1.));
#594=DIRECTION('',(0.,1.,2.61228946970625E-17));
#595=DIRECTION('',(0.,0.,1.));
#596=DIRECTION('',(0.,-1.,-2.61228946970625E-17));
#597=DIRECTION('',(0.,0.,-1.));
#598=CARTESIAN_POINT('',(0.,0.,0.));
#599=CARTESIAN_POINT('',(0.,2.4329389664479,0.3));
#600=CARTESIAN_POINT('',(0.,2.4329389664479,-0.475));
#601=CARTESIAN_POINT('',(0.,2.02452433902234E-17,0.3));
#602=CARTESIAN_POINT('',(0.,-3.00926553810506E-32,1.075));
#603=CARTESIAN_POINT('',(0.,-8.88178419700125E-16,0.3));
#604=CARTESIAN_POINT('',(0.,7.83686840911875E-17,0.3));
#605=CARTESIAN_POINT('',(0.,-6.01853107621011E-32,3.3));
#606=CARTESIAN_POINT('',(0.,2.9061720350482E-17,1.075));
#607=CARTESIAN_POINT('',(0.,3.1,0.3));
#608=CARTESIAN_POINT('',(0.,3.1,3.3));
#609=CARTESIAN_POINT('',(0.,-8.88178419700125E-16,0.3));
#610=CARTESIAN_POINT('',(0.,3.5,0.3));
#611=CARTESIAN_POINT('',(0.,3.5,3.7));
#612=CARTESIAN_POINT('',(0.,3.5,0.3));
#613=CARTESIAN_POINT('',(0.,3.5,5.125));
#614=CARTESIAN_POINT('',(0.,3.5,4.35));
#615=CARTESIAN_POINT('',(0.,3.85,0.3));
#616=CARTESIAN_POINT('',(0.,3.85,5.475));
#617=CARTESIAN_POINT('',(0.,4.19343835024,0.3));
#618=CARTESIAN_POINT('',(0.,4.19343835024,5.475));
#619=CARTESIAN_POINT('',(0.,-8.88178419700125E-16,0.3));
#620=CARTESIAN_POINT('',(0.,4.26152645164335,0.3));
#621=CARTESIAN_POINT('',(0.,4.26152645164335,-4.09674943976403));
#622=CARTESIAN_POINT('',(0.,4.19343835024,0.3));
#623=CARTESIAN_POINT('',(0.,4.63993706299885,0.3));
#624=CARTESIAN_POINT('',(0.,4.63993706299885,4.35));
#625=CARTESIAN_POINT('',(0.,4.70350128724115,0.3));
#626=CARTESIAN_POINT('',(0.,4.70350128724115,4.35));
#627=CARTESIAN_POINT('',(0.,-8.88178419700125E-16,0.3));
#628=CARTESIAN_POINT('',(0.,5.08191189859664,0.3));
#629=CARTESIAN_POINT('',(0.,5.08191189859664,4.69674943976403));
#630=CARTESIAN_POINT('',(0.,5.12204776657398,0.3));
#631=CARTESIAN_POINT('',(0.,5.12204776657398,-4.55550450996168));
#632=CARTESIAN_POINT('',(0.,5.05157525353333,0.3));
#633=CARTESIAN_POINT('',(0.,5.47071591090609,0.3));
#634=CARTESIAN_POINT('',(0.,5.47071591090609,-4.875));
#635=CARTESIAN_POINT('',(0.,5.84343835024001,0.3));
#636=CARTESIAN_POINT('',(0.,5.84343835024001,5.475));
#637=CARTESIAN_POINT('',(0.,-8.88178419700125E-16,0.3));
#638=CARTESIAN_POINT('',(0.,5.91152645164336,0.3));
#639=CARTESIAN_POINT('',(0.,5.91152645164336,-4.09674943976403));
#640=CARTESIAN_POINT('',(0.,5.84343835024001,0.3));
#641=CARTESIAN_POINT('',(0.,6.28993706299886,0.3));
#642=CARTESIAN_POINT('',(0.,6.28993706299886,4.35));
#643=CARTESIAN_POINT('',(0.,6.35350128724116,0.3));
#644=CARTESIAN_POINT('',(0.,6.35350128724116,4.35));
#645=CARTESIAN_POINT('',(0.,-8.88178419700125E-16,0.3));
#646=CARTESIAN_POINT('',(0.,6.73191189859666,0.3));
#647=CARTESIAN_POINT('',(0.,6.73191189859666,4.69674943976404));
#648=CARTESIAN_POINT('',(0.,6.77204776657399,0.3));
#649=CARTESIAN_POINT('',(0.,6.77204776657399,-4.55550450996168));
#650=CARTESIAN_POINT('',(0.,6.70157525353334,0.3));
#651=CARTESIAN_POINT('',(0.,7.1207159109061,0.3));
#652=CARTESIAN_POINT('',(0.,7.1207159109061,-4.875));
#653=CARTESIAN_POINT('',(0.,7.5,0.3));
#654=CARTESIAN_POINT('',(0.,7.5,5.475));
#655=CARTESIAN_POINT('',(0.,-8.88178419700125E-16,0.3));
#656=CARTESIAN_POINT('',(0.,7.5,0.3));
#657=CARTESIAN_POINT('',(0.,7.5,-1.68743556529822));
#658=CARTESIAN_POINT('',(0.,7.5,5.475));
#659=CARTESIAN_POINT('',(0.,7.25,0.3));
#660=CARTESIAN_POINT('',(0.,7.25,-1.254422863406));
#661=CARTESIAN_POINT('',(0.,6.03582738584951,0.3));
#662=CARTESIAN_POINT('',(0.,6.03582738584951,-0.553419977783535));
#663=CARTESIAN_POINT('',(0.,7.5,0.3));
#664=CARTESIAN_POINT('',(0.,5.17773911089896,0.3));
#665=CARTESIAN_POINT('',(0.,5.17773911089896,-0.814887477224017));
#666=CARTESIAN_POINT('',(0.,5.75808827495054,0.3));
#667=CARTESIAN_POINT('',(0.,5.75808827495054,1.14178198825857));
#668=CARTESIAN_POINT('',(0.,5.9,0.3));
#669=CARTESIAN_POINT('',(0.,4.32773911089896,0.3));
#670=CARTESIAN_POINT('',(0.,4.32773911089896,-0.535112522775983));
#671=CARTESIAN_POINT('',(0.,4.92226088910104,0.3));
#672=CARTESIAN_POINT('',(0.,4.92226088910104,1.41488747722402));
#673=CARTESIAN_POINT('',(0.,5.05,0.3));
#674=CARTESIAN_POINT('',(0.,3.47773911089896,0.3));
#675=CARTESIAN_POINT('',(0.,3.47773911089896,-0.814887477224017));
#676=CARTESIAN_POINT('',(0.,4.07226088910104,0.3));
#677=CARTESIAN_POINT('',(0.,4.07226088910104,1.13511252277598));
#678=CARTESIAN_POINT('',(0.,4.2,0.3));
#679=CARTESIAN_POINT('',(0.,2.56067807734687,0.3));
#680=CARTESIAN_POINT('',(0.,2.56067807734687,-0.503554389339701));
#681=CARTESIAN_POINT('',(0.,3.22226088910104,0.3));
#682=CARTESIAN_POINT('',(0.,3.22226088910104,1.41488747722402));
#683=CARTESIAN_POINT('',(0.,3.35,0.3));
#684=CARTESIAN_POINT('',(0.,7.1207159109061,0.3));
#685=CARTESIAN_POINT('',(0.,5.47071591090609,0.3));
#686=CARTESIAN_POINT('',(0.,3.85,0.3));
#687=CARTESIAN_POINT('',(0.,3.1,0.3));
#688=CARTESIAN_POINT('',(0.,2.4329389664479,0.3));
#689=CARTESIAN_POINT('',(0.,3.35,0.3));
#690=CARTESIAN_POINT('',(0.,4.2,0.3));
#691=CARTESIAN_POINT('',(0.,5.05,0.3));
#692=CARTESIAN_POINT('',(0.,5.88582738584951,0.3));
#693=CARTESIAN_POINT('',(0.,6.28993706299886,0.3));
#694=CARTESIAN_POINT('',(0.,6.35350128724116,0.3));
#695=CARTESIAN_POINT('',(0.,4.63993706299885,0.3));
#696=CARTESIAN_POINT('',(0.,4.70350128724115,0.3));
#697=CARTESIAN_POINT('',(0.,7.,0.3));
#698=MECHANICAL_DESIGN_GEOMETRIC_PRESENTATION_REPRESENTATION('',(#24),#699);
#699=(
GEOMETRIC_REPRESENTATION_CONTEXT(3)
GLOBAL_UNCERTAINTY_ASSIGNED_CONTEXT((#700))
GLOBAL_UNIT_ASSIGNED_CONTEXT((#706,#702,#701))
REPRESENTATION_CONTEXT('12052388','TOP_LEVEL_ASSEMBLY_PART')
);
#700=UNCERTAINTY_MEASURE_WITH_UNIT(LENGTH_MEASURE(2.E-5),#706,
'DISTANCE_ACCURACY_VALUE','Maximum Tolerance applied to model');
#701=(
NAMED_UNIT(*)
SI_UNIT($,.STERADIAN.)
SOLID_ANGLE_UNIT()
);
#702=(
CONVERSION_BASED_UNIT('DEGREE',#704)
NAMED_UNIT(#703)
PLANE_ANGLE_UNIT()
);
#703=DIMENSIONAL_EXPONENTS(0.,0.,0.,0.,0.,0.,0.);
#704=PLANE_ANGLE_MEASURE_WITH_UNIT(PLANE_ANGLE_MEASURE(0.0174532925),#705);
#705=(
NAMED_UNIT(*)
PLANE_ANGLE_UNIT()
SI_UNIT($,.RADIAN.)
);
#706=(
LENGTH_UNIT()
NAMED_UNIT(*)
SI_UNIT(.MILLI.,.METRE.)
);
ENDSEC;
END-ISO-10303-21;
