ISO-10303-21;
HEADER;
/* Generated by software containing ST-Developer
 * from STEP Tools, Inc. (www.steptools.com) 
 */
/* OPTION: using custom schema-name function */

FILE_DESCRIPTION(
/* description */ (''),
/* implementation_level */ '2;1');

FILE_NAME(
/* name */ '12084193.stp',
/* time_stamp */ '2020-05-11T12:44:43+08:00',
/* author */ (''),
/* organization */ (''),
/* preprocessor_version */ 'ST-DEVELOPER v16',
/* originating_system */ 'SIEMENS PLM Software NX 11.0',
/* authorisation */ '');

FILE_SCHEMA (('AUTOMOTIVE_DESIGN { 1 0 10303 214 3 1 1 1 }'));
ENDSEC;

DATA;
#10=SHAPE_REPRESENTATION_RELATIONSHIP('None',
'relationship between 12084193_01AE-SEAL-None and 12084193_01AE-SEAL-N
one',#22,#11);
#11=ADVANCED_BREP_SHAPE_REPRESENTATION('12084193_01AE-SEAL-None',(#32),
#419);
#12=SHAPE_DEFINITION_REPRESENTATION(#13,#22);
#13=PRODUCT_DEFINITION_SHAPE('','',#14);
#14=PRODUCT_DEFINITION(' ','',#16,#15);
#15=PRODUCT_DEFINITION_CONTEXT('part definition',#21,'design');
#16=PRODUCT_DEFINITION_FORMATION_WITH_SPECIFIED_SOURCE(' ',' ',#18,
 .NOT_KNOWN.);
#17=PRODUCT_RELATED_PRODUCT_CATEGORY('part','',(#18));
#18=PRODUCT('12084193_01AE-SEAL','12084193_01AE-SEAL',' ',(#19));
#19=PRODUCT_CONTEXT(' ',#21,'mechanical');
#20=APPLICATION_PROTOCOL_DEFINITION('international standard',
'automotive_design',2010,#21);
#21=APPLICATION_CONTEXT(
'core data for automotive mechanical design processes');
#22=SHAPE_REPRESENTATION('12084193_01AE-SEAL-None',(#243),#419);
#23=PRESENTATION_LAYER_ASSIGNMENT('101','Layer 101',(#32));
#24=STYLED_ITEM('',(#25),#32);
#25=PRESENTATION_STYLE_ASSIGNMENT((#26));
#26=SURFACE_STYLE_USAGE(.BOTH.,#27);
#27=SURFACE_SIDE_STYLE('',(#28));
#28=SURFACE_STYLE_FILL_AREA(#29);
#29=FILL_AREA_STYLE('',(#30));
#30=FILL_AREA_STYLE_COLOUR('',#31);
#31=COLOUR_RGB('Dark Hard Orange',0.8,0.4,0.);
#32=MANIFOLD_SOLID_BREP('',#33);
#33=CLOSED_SHELL('',(#50,#51,#52,#53,#54,#55,#56,#57,#58,#59,#60,#61,#62,
#63,#64,#65,#66,#67,#68));
#34=TOROIDAL_SURFACE('',#258,2.38005519992233,0.430055199923778);
#35=TOROIDAL_SURFACE('',#267,2.38005519992378,0.430055199923774);
#36=TOROIDAL_SURFACE('',#278,2.525,0.35);
#37=TOROIDAL_SURFACE('',#279,2.525,0.35);
#38=TOROIDAL_SURFACE('',#280,2.525,0.35);
#39=TOROIDAL_SURFACE('',#281,2.125,0.4);
#40=CONICAL_SURFACE('',#256,2.875,85.0000000000062);
#41=CONICAL_SURFACE('',#260,2.34257341955042,84.999999999993);
#42=CONICAL_SURFACE('',#265,2.875,85.0000000000052);
#43=CONICAL_SURFACE('',#269,2.34257341955189,84.9999999999935);
#44=CONICAL_SURFACE('',#276,0.952350269189634,30.0000000000002);
#45=CYLINDRICAL_SURFACE('',#248,1.725);
#46=CYLINDRICAL_SURFACE('',#254,2.875);
#47=CYLINDRICAL_SURFACE('',#263,2.875);
#48=CYLINDRICAL_SURFACE('',#272,2.875);
#49=CYLINDRICAL_SURFACE('',#277,0.375000000000002);
#50=ADVANCED_FACE('',(#72,#73),#69,.F.);
#51=ADVANCED_FACE('',(#74,#75),#45,.T.);
#52=ADVANCED_FACE('',(#76,#77),#70,.F.);
#53=ADVANCED_FACE('',(#78,#79),#46,.T.);
#54=ADVANCED_FACE('',(#80,#81),#40,.T.);
#55=ADVANCED_FACE('',(#82,#83),#34,.F.);
#56=ADVANCED_FACE('',(#84,#85),#41,.T.);
#57=ADVANCED_FACE('',(#86,#87),#47,.T.);
#58=ADVANCED_FACE('',(#88,#89),#42,.T.);
#59=ADVANCED_FACE('',(#90,#91),#35,.F.);
#60=ADVANCED_FACE('',(#92,#93),#43,.T.);
#61=ADVANCED_FACE('',(#94,#95),#48,.T.);
#62=ADVANCED_FACE('',(#96,#97),#71,.F.);
#63=ADVANCED_FACE('',(#98,#99),#44,.F.);
#64=ADVANCED_FACE('',(#100,#101),#49,.F.);
#65=ADVANCED_FACE('',(#102,#103),#36,.T.);
#66=ADVANCED_FACE('',(#104,#105),#37,.T.);
#67=ADVANCED_FACE('',(#106,#107),#38,.T.);
#68=ADVANCED_FACE('',(#108,#109),#39,.F.);
#69=PLANE('',#246);
#70=PLANE('',#251);
#71=PLANE('',#274);
#72=FACE_BOUND('',#110,.T.);
#73=FACE_BOUND('',#111,.T.);
#74=FACE_BOUND('',#112,.T.);
#75=FACE_BOUND('',#113,.T.);
#76=FACE_BOUND('',#114,.T.);
#77=FACE_BOUND('',#115,.T.);
#78=FACE_BOUND('',#116,.T.);
#79=FACE_BOUND('',#117,.T.);
#80=FACE_BOUND('',#118,.T.);
#81=FACE_BOUND('',#119,.T.);
#82=FACE_BOUND('',#120,.T.);
#83=FACE_BOUND('',#121,.T.);
#84=FACE_BOUND('',#122,.T.);
#85=FACE_BOUND('',#123,.T.);
#86=FACE_BOUND('',#124,.T.);
#87=FACE_BOUND('',#125,.T.);
#88=FACE_BOUND('',#126,.T.);
#89=FACE_BOUND('',#127,.T.);
#90=FACE_BOUND('',#128,.T.);
#91=FACE_BOUND('',#129,.T.);
#92=FACE_BOUND('',#130,.T.);
#93=FACE_BOUND('',#131,.T.);
#94=FACE_BOUND('',#132,.T.);
#95=FACE_BOUND('',#133,.T.);
#96=FACE_BOUND('',#134,.T.);
#97=FACE_BOUND('',#135,.T.);
#98=FACE_BOUND('',#136,.T.);
#99=FACE_BOUND('',#137,.T.);
#100=FACE_BOUND('',#138,.T.);
#101=FACE_BOUND('',#139,.T.);
#102=FACE_BOUND('',#140,.T.);
#103=FACE_BOUND('',#141,.T.);
#104=FACE_BOUND('',#142,.T.);
#105=FACE_BOUND('',#143,.T.);
#106=FACE_BOUND('',#144,.T.);
#107=FACE_BOUND('',#145,.T.);
#108=FACE_BOUND('',#146,.T.);
#109=FACE_BOUND('',#147,.T.);
#110=EDGE_LOOP('',(#148));
#111=EDGE_LOOP('',(#149));
#112=EDGE_LOOP('',(#150));
#113=EDGE_LOOP('',(#151));
#114=EDGE_LOOP('',(#152));
#115=EDGE_LOOP('',(#153));
#116=EDGE_LOOP('',(#154));
#117=EDGE_LOOP('',(#155));
#118=EDGE_LOOP('',(#156));
#119=EDGE_LOOP('',(#157));
#120=EDGE_LOOP('',(#158));
#121=EDGE_LOOP('',(#159));
#122=EDGE_LOOP('',(#160));
#123=EDGE_LOOP('',(#161));
#124=EDGE_LOOP('',(#162));
#125=EDGE_LOOP('',(#163));
#126=EDGE_LOOP('',(#164));
#127=EDGE_LOOP('',(#165));
#128=EDGE_LOOP('',(#166));
#129=EDGE_LOOP('',(#167));
#130=EDGE_LOOP('',(#168));
#131=EDGE_LOOP('',(#169));
#132=EDGE_LOOP('',(#170));
#133=EDGE_LOOP('',(#171));
#134=EDGE_LOOP('',(#172));
#135=EDGE_LOOP('',(#173));
#136=EDGE_LOOP('',(#174));
#137=EDGE_LOOP('',(#175));
#138=EDGE_LOOP('',(#176));
#139=EDGE_LOOP('',(#177));
#140=EDGE_LOOP('',(#178));
#141=EDGE_LOOP('',(#179));
#142=EDGE_LOOP('',(#180));
#143=EDGE_LOOP('',(#181));
#144=EDGE_LOOP('',(#182));
#145=EDGE_LOOP('',(#183));
#146=EDGE_LOOP('',(#184));
#147=EDGE_LOOP('',(#185));
#148=ORIENTED_EDGE('',*,*,#205,.F.);
#149=ORIENTED_EDGE('',*,*,#206,.T.);
#150=ORIENTED_EDGE('',*,*,#207,.T.);
#151=ORIENTED_EDGE('',*,*,#205,.T.);
#152=ORIENTED_EDGE('',*,*,#208,.T.);
#153=ORIENTED_EDGE('',*,*,#209,.T.);
#154=ORIENTED_EDGE('',*,*,#210,.T.);
#155=ORIENTED_EDGE('',*,*,#211,.F.);
#156=ORIENTED_EDGE('',*,*,#212,.F.);
#157=ORIENTED_EDGE('',*,*,#211,.T.);
#158=ORIENTED_EDGE('',*,*,#212,.T.);
#159=ORIENTED_EDGE('',*,*,#213,.F.);
#160=ORIENTED_EDGE('',*,*,#214,.T.);
#161=ORIENTED_EDGE('',*,*,#213,.T.);
#162=ORIENTED_EDGE('',*,*,#215,.T.);
#163=ORIENTED_EDGE('',*,*,#216,.F.);
#164=ORIENTED_EDGE('',*,*,#217,.F.);
#165=ORIENTED_EDGE('',*,*,#216,.T.);
#166=ORIENTED_EDGE('',*,*,#217,.T.);
#167=ORIENTED_EDGE('',*,*,#218,.F.);
#168=ORIENTED_EDGE('',*,*,#219,.T.);
#169=ORIENTED_EDGE('',*,*,#218,.T.);
#170=ORIENTED_EDGE('',*,*,#220,.T.);
#171=ORIENTED_EDGE('',*,*,#221,.F.);
#172=ORIENTED_EDGE('',*,*,#222,.F.);
#173=ORIENTED_EDGE('',*,*,#221,.T.);
#174=ORIENTED_EDGE('',*,*,#223,.F.);
#175=ORIENTED_EDGE('',*,*,#222,.T.);
#176=ORIENTED_EDGE('',*,*,#223,.T.);
#177=ORIENTED_EDGE('',*,*,#206,.F.);
#178=ORIENTED_EDGE('',*,*,#219,.F.);
#179=ORIENTED_EDGE('',*,*,#220,.F.);
#180=ORIENTED_EDGE('',*,*,#214,.F.);
#181=ORIENTED_EDGE('',*,*,#215,.F.);
#182=ORIENTED_EDGE('',*,*,#209,.F.);
#183=ORIENTED_EDGE('',*,*,#210,.F.);
#184=ORIENTED_EDGE('',*,*,#207,.F.);
#185=ORIENTED_EDGE('',*,*,#208,.F.);
#186=VERTEX_POINT('',#362);
#187=VERTEX_POINT('',#364);
#188=VERTEX_POINT('',#367);
#189=VERTEX_POINT('',#370);
#190=VERTEX_POINT('',#372);
#191=VERTEX_POINT('',#375);
#192=VERTEX_POINT('',#377);
#193=VERTEX_POINT('',#380);
#194=VERTEX_POINT('',#383);
#195=VERTEX_POINT('',#386);
#196=VERTEX_POINT('',#389);
#197=VERTEX_POINT('',#391);
#198=VERTEX_POINT('',#394);
#199=VERTEX_POINT('',#397);
#200=VERTEX_POINT('',#400);
#201=VERTEX_POINT('',#403);
#202=VERTEX_POINT('',#405);
#203=VERTEX_POINT('',#408);
#204=VERTEX_POINT('',#411);
#205=EDGE_CURVE('',#186,#186,#224,.T.);
#206=EDGE_CURVE('',#187,#187,#225,.T.);
#207=EDGE_CURVE('',#188,#188,#226,.T.);
#208=EDGE_CURVE('',#189,#189,#227,.T.);
#209=EDGE_CURVE('',#190,#190,#228,.T.);
#210=EDGE_CURVE('',#191,#191,#229,.T.);
#211=EDGE_CURVE('',#192,#192,#230,.T.);
#212=EDGE_CURVE('',#193,#193,#231,.T.);
#213=EDGE_CURVE('',#194,#194,#232,.T.);
#214=EDGE_CURVE('',#195,#195,#233,.T.);
#215=EDGE_CURVE('',#196,#196,#234,.T.);
#216=EDGE_CURVE('',#197,#197,#235,.T.);
#217=EDGE_CURVE('',#198,#198,#236,.T.);
#218=EDGE_CURVE('',#199,#199,#237,.T.);
#219=EDGE_CURVE('',#200,#200,#238,.T.);
#220=EDGE_CURVE('',#201,#201,#239,.T.);
#221=EDGE_CURVE('',#202,#202,#240,.T.);
#222=EDGE_CURVE('',#203,#203,#241,.T.);
#223=EDGE_CURVE('',#204,#204,#242,.T.);
#224=CIRCLE('',#244,1.725);
#225=CIRCLE('',#245,0.375);
#226=CIRCLE('',#247,1.725);
#227=CIRCLE('',#249,2.125);
#228=CIRCLE('',#250,2.525);
#229=CIRCLE('',#252,2.875);
#230=CIRCLE('',#253,2.875);
#231=CIRCLE('',#255,2.34257341955052);
#232=CIRCLE('',#257,2.34257341955042);
#233=CIRCLE('',#259,2.55550450996173);
#234=CIRCLE('',#261,2.875);
#235=CIRCLE('',#262,2.875);
#236=CIRCLE('',#264,2.34257341955198);
#237=CIRCLE('',#266,2.34257341955188);
#238=CIRCLE('',#268,2.55550450996172);
#239=CIRCLE('',#270,2.875);
#240=CIRCLE('',#271,2.875);
#241=CIRCLE('',#273,0.952350269189633);
#242=CIRCLE('',#275,0.375000000000005);
#243=AXIS2_PLACEMENT_3D('',#360,#282,#283);
#244=AXIS2_PLACEMENT_3D('',#361,#284,#285);
#245=AXIS2_PLACEMENT_3D('',#363,#286,#287);
#246=AXIS2_PLACEMENT_3D('',#365,#288,#289);
#247=AXIS2_PLACEMENT_3D('',#366,#290,#291);
#248=AXIS2_PLACEMENT_3D('',#368,#292,#293);
#249=AXIS2_PLACEMENT_3D('',#369,#294,#295);
#250=AXIS2_PLACEMENT_3D('',#371,#296,#297);
#251=AXIS2_PLACEMENT_3D('',#373,#298,#299);
#252=AXIS2_PLACEMENT_3D('',#374,#300,#301);
#253=AXIS2_PLACEMENT_3D('',#376,#302,#303);
#254=AXIS2_PLACEMENT_3D('',#378,#304,#305);
#255=AXIS2_PLACEMENT_3D('',#379,#306,#307);
#256=AXIS2_PLACEMENT_3D('',#381,#308,#309);
#257=AXIS2_PLACEMENT_3D('',#382,#310,#311);
#258=AXIS2_PLACEMENT_3D('',#384,#312,#313);
#259=AXIS2_PLACEMENT_3D('',#385,#314,#315);
#260=AXIS2_PLACEMENT_3D('',#387,#316,#317);
#261=AXIS2_PLACEMENT_3D('',#388,#318,#319);
#262=AXIS2_PLACEMENT_3D('',#390,#320,#321);
#263=AXIS2_PLACEMENT_3D('',#392,#322,#323);
#264=AXIS2_PLACEMENT_3D('',#393,#324,#325);
#265=AXIS2_PLACEMENT_3D('',#395,#326,#327);
#266=AXIS2_PLACEMENT_3D('',#396,#328,#329);
#267=AXIS2_PLACEMENT_3D('',#398,#330,#331);
#268=AXIS2_PLACEMENT_3D('',#399,#332,#333);
#269=AXIS2_PLACEMENT_3D('',#401,#334,#335);
#270=AXIS2_PLACEMENT_3D('',#402,#336,#337);
#271=AXIS2_PLACEMENT_3D('',#404,#338,#339);
#272=AXIS2_PLACEMENT_3D('',#406,#340,#341);
#273=AXIS2_PLACEMENT_3D('',#407,#342,#343);
#274=AXIS2_PLACEMENT_3D('',#409,#344,#345);
#275=AXIS2_PLACEMENT_3D('',#410,#346,#347);
#276=AXIS2_PLACEMENT_3D('',#412,#348,#349);
#277=AXIS2_PLACEMENT_3D('',#413,#350,#351);
#278=AXIS2_PLACEMENT_3D('',#414,#352,#353);
#279=AXIS2_PLACEMENT_3D('',#415,#354,#355);
#280=AXIS2_PLACEMENT_3D('',#416,#356,#357);
#281=AXIS2_PLACEMENT_3D('',#417,#358,#359);
#282=DIRECTION('',(0.,0.,1.));
#283=DIRECTION('',(1.,0.,0.));
#284=DIRECTION('',(0.,1.,6.63807628705011E-16));
#285=DIRECTION('',(0.,-1.00563679766772E-15,0.999999999999999));
#286=DIRECTION('',(0.,1.,6.63807628705011E-16));
#287=DIRECTION('',(0.,0.,1.));
#288=DIRECTION('',(0.,1.,6.63807628705011E-16));
#289=DIRECTION('',(0.,-6.64399091299117E-16,1.));
#290=DIRECTION('',(0.,-1.,-6.63807628705011E-16));
#291=DIRECTION('',(0.,-1.00563679766772E-15,0.999999999999999));
#292=DIRECTION('',(0.,1.,6.63807628705011E-16));
#293=DIRECTION('',(0.,-1.00563679766772E-15,0.999999999999999));
#294=DIRECTION('',(0.,1.,6.63807628705011E-16));
#295=DIRECTION('',(0.,-8.16340459283204E-16,1.));
#296=DIRECTION('',(0.,-1.,-6.63807628705011E-16));
#297=DIRECTION('',(0.,-6.87019198406656E-16,1.));
#298=DIRECTION('',(0.,1.,6.63807628705011E-16));
#299=DIRECTION('',(0.,-6.64399091299117E-16,1.));
#300=DIRECTION('',(0.,1.,6.63807628705011E-16));
#301=DIRECTION('',(0.,-6.03382078600628E-16,1.));
#302=DIRECTION('',(0.,1.,6.63807628705011E-16));
#303=DIRECTION('',(0.,-1.20676415720126E-15,1.));
#304=DIRECTION('',(0.,1.,6.63807628705011E-16));
#305=DIRECTION('',(0.,-6.03382078600628E-16,1.));
#306=DIRECTION('',(0.,1.,6.63807628705011E-16));
#307=DIRECTION('',(0.,0.,1.));
#308=DIRECTION('',(0.,-1.,-6.63807628705011E-16));
#309=DIRECTION('',(0.,6.5608256848644E-16,-1.));
#310=DIRECTION('',(0.,1.,6.63807628705011E-16));
#311=DIRECTION('',(0.,0.,1.));
#312=DIRECTION('',(0.,1.,6.63807628705011E-16));
#313=DIRECTION('',(0.,-1.23463012419143E-15,1.));
#314=DIRECTION('',(0.,-1.,-6.63807628705011E-16));
#315=DIRECTION('',(0.,0.,-1.));
#316=DIRECTION('',(0.,1.,6.63807628705011E-16));
#317=DIRECTION('',(0.,-6.55506173237936E-16,1.));
#318=DIRECTION('',(0.,1.,6.63807628705011E-16));
#319=DIRECTION('',(0.,1.20676415720126E-15,-1.));
#320=DIRECTION('',(0.,1.,6.63807628705011E-16));
#321=DIRECTION('',(0.,-1.20676415720126E-15,1.));
#322=DIRECTION('',(0.,1.,6.63807628705011E-16));
#323=DIRECTION('',(0.,-6.03382078600628E-16,1.));
#324=DIRECTION('',(0.,1.,6.63807628705011E-16));
#325=DIRECTION('',(0.,0.,1.));
#326=DIRECTION('',(0.,-1.,-6.63807628705011E-16));
#327=DIRECTION('',(0.,6.5851025606654E-16,-1.));
#328=DIRECTION('',(0.,1.,6.63807628705011E-16));
#329=DIRECTION('',(0.,0.,1.));
#330=DIRECTION('',(0.,1.,6.63807628705011E-16));
#331=DIRECTION('',(0.,-1.23463012419079E-15,1.));
#332=DIRECTION('',(0.,-1.,-6.63807628705011E-16));
#333=DIRECTION('',(0.,0.,-1.));
#334=DIRECTION('',(0.,1.,6.63807628705011E-16));
#335=DIRECTION('',(0.,-6.6157567484193E-16,1.));
#336=DIRECTION('',(0.,1.,6.63807628705011E-16));
#337=DIRECTION('',(0.,1.20676415720126E-15,-1.));
#338=DIRECTION('',(0.,1.,6.63807628705011E-16));
#339=DIRECTION('',(0.,-1.20676415720126E-15,1.));
#340=DIRECTION('',(0.,1.,6.63807628705011E-16));
#341=DIRECTION('',(0.,-6.03382078600628E-16,0.999999999999999));
#342=DIRECTION('',(0.,1.,6.63807628705011E-16));
#343=DIRECTION('',(0.,0.,1.));
#344=DIRECTION('',(0.,-1.,-6.63807628705011E-16));
#345=DIRECTION('',(0.,6.6266436782314E-16,-1.));
#346=DIRECTION('',(0.,1.,6.63807628705011E-16));
#347=DIRECTION('',(0.,0.,0.999999999999998));
#348=DIRECTION('',(0.,1.,6.63807628705011E-16));
#349=DIRECTION('',(0.,-6.95926030567251E-16,1.));
#350=DIRECTION('',(0.,1.,6.63807628705011E-16));
#351=DIRECTION('',(0.,0.,1.));
#352=DIRECTION('',(0.,-1.,-6.63807628705011E-16));
#353=DIRECTION('',(0.,1.20676415720126E-15,-1.));
#354=DIRECTION('',(0.,-1.,-6.63807628705011E-16));
#355=DIRECTION('',(0.,1.20676415720126E-15,-1.));
#356=DIRECTION('',(0.,1.,6.63807628705011E-16));
#357=DIRECTION('',(0.,-6.03382078600628E-16,1.));
#358=DIRECTION('',(0.,1.,6.63807628705011E-16));
#359=DIRECTION('',(0.,-6.87019198406657E-16,1.));
#360=CARTESIAN_POINT('',(0.,0.,0.));
#361=CARTESIAN_POINT('',(0.,11.6708576120757,15.1744139945826));
#362=CARTESIAN_POINT('',(0.,11.6708576120757,16.8994139945825));
#363=CARTESIAN_POINT('',(0.,11.6708576120757,15.1744139945826));
#364=CARTESIAN_POINT('',(0.,11.6708576120757,15.5494139945826));
#365=CARTESIAN_POINT('',(-2.22044604925031E-16,11.6708576120757,14.7994139945826));
#366=CARTESIAN_POINT('',(0.,14.7708576120757,15.1744139945826));
#367=CARTESIAN_POINT('',(0.,14.7708576120757,16.8994139945826));
#368=CARTESIAN_POINT('',(0.,9.19874654748675,15.1744139945826));
#369=CARTESIAN_POINT('',(0.,15.1708576120757,15.1744139945826));
#370=CARTESIAN_POINT('',(0.,15.1708576120757,17.2994139945826));
#371=CARTESIAN_POINT('',(0.,15.1708576120757,15.1744139945826));
#372=CARTESIAN_POINT('',(0.,15.1708576120757,17.6994139945826));
#373=CARTESIAN_POINT('',(0.,15.1708576120757,13.4494139945826));
#374=CARTESIAN_POINT('',(0.,15.5208576120757,15.1744139945826));
#375=CARTESIAN_POINT('',(0.,15.5208576120757,18.0494139945826));
#376=CARTESIAN_POINT('',(0.,15.8708576120757,15.1744139945826));
#377=CARTESIAN_POINT('',(0.,15.8708576120757,18.0494139945826));
#378=CARTESIAN_POINT('',(0.,9.19874654748675,15.1744139945826));
#379=CARTESIAN_POINT('',(0.,15.9174389020248,15.1744139945826));
#380=CARTESIAN_POINT('',(0.,15.9174389020248,17.5169874141331));
#381=CARTESIAN_POINT('',(0.,15.8708576120757,15.1744139945826));
#382=CARTESIAN_POINT('',(0.,16.7742763221265,15.1744139945826));
#383=CARTESIAN_POINT('',(0.,16.7742763221265,17.516987414133));
#384=CARTESIAN_POINT('',(0.,16.3458576120757,15.1744139945826));
#385=CARTESIAN_POINT('',(0.,16.7929053786497,15.1744139945826));
#386=CARTESIAN_POINT('',(0.,16.7929053786497,12.6189094846208));
#387=CARTESIAN_POINT('',(0.,16.7742763221265,15.1744139945826));
#388=CARTESIAN_POINT('',(0.,17.1415735229819,15.1744139945826));
#389=CARTESIAN_POINT('',(0.,17.1415735229819,12.2994139945826));
#390=CARTESIAN_POINT('',(0.,17.5208576120758,15.1744139945826));
#391=CARTESIAN_POINT('',(0.,17.5208576120758,18.0494139945826));
#392=CARTESIAN_POINT('',(0.,9.19874654748675,15.1744139945826));
#393=CARTESIAN_POINT('',(0.,17.5674389020248,15.1744139945826));
#394=CARTESIAN_POINT('',(0.,17.5674389020248,17.5169874141345));
#395=CARTESIAN_POINT('',(0.,17.5208576120758,15.1744139945826));
#396=CARTESIAN_POINT('',(0.,18.4242763221265,15.1744139945826));
#397=CARTESIAN_POINT('',(0.,18.4242763221265,17.5169874141344));
#398=CARTESIAN_POINT('',(0.,17.9958576120757,15.1744139945826));
#399=CARTESIAN_POINT('',(0.,18.4429053786496,15.1744139945826));
#400=CARTESIAN_POINT('',(0.,18.4429053786496,12.6189094846208));
#401=CARTESIAN_POINT('',(0.,18.4242763221265,15.1744139945826));
#402=CARTESIAN_POINT('',(0.,18.7915735229817,15.1744139945826));
#403=CARTESIAN_POINT('',(0.,18.7915735229817,12.2994139945826));
#404=CARTESIAN_POINT('',(0.,19.1708576120757,15.1744139945826));
#405=CARTESIAN_POINT('',(0.,19.1708576120757,18.0494139945826));
#406=CARTESIAN_POINT('',(0.,9.19874654748675,15.1744139945826));
#407=CARTESIAN_POINT('',(0.,19.1708576120757,15.1744139945826));
#408=CARTESIAN_POINT('',(0.,19.1708576120757,16.1267642637722));
#409=CARTESIAN_POINT('',(0.,19.1708576120757,12.2994139945826));
#410=CARTESIAN_POINT('',(0.,18.1708576120757,15.1744139945826));
#411=CARTESIAN_POINT('',(0.,18.1708576120757,15.5494139945826));
#412=CARTESIAN_POINT('',(0.,19.1708576120757,15.1744139945826));
#413=CARTESIAN_POINT('',(0.,9.19874654748675,15.1744139945826));
#414=CARTESIAN_POINT('',(0.,18.7915735229817,15.1744139945826));
#415=CARTESIAN_POINT('',(0.,17.1415735229819,15.1744139945826));
#416=CARTESIAN_POINT('',(0.,15.5208576120757,15.1744139945826));
#417=CARTESIAN_POINT('',(0.,14.7708576120757,15.1744139945826));
#418=MECHANICAL_DESIGN_GEOMETRIC_PRESENTATION_REPRESENTATION('',(#24),#419);
#419=(
GEOMETRIC_REPRESENTATION_CONTEXT(3)
GLOBAL_UNCERTAINTY_ASSIGNED_CONTEXT((#420))
GLOBAL_UNIT_ASSIGNED_CONTEXT((#426,#422,#421))
REPRESENTATION_CONTEXT('12084193','TOP_LEVEL_ASSEMBLY_PART')
);
#420=UNCERTAINTY_MEASURE_WITH_UNIT(LENGTH_MEASURE(2.E-5),#426,
'DISTANCE_ACCURACY_VALUE','Maximum Tolerance applied to model');
#421=(
NAMED_UNIT(*)
SI_UNIT($,.STERADIAN.)
SOLID_ANGLE_UNIT()
);
#422=(
CONVERSION_BASED_UNIT('DEGREE',#424)
NAMED_UNIT(#423)
PLANE_ANGLE_UNIT()
);
#423=DIMENSIONAL_EXPONENTS(0.,0.,0.,0.,0.,0.,0.);
#424=PLANE_ANGLE_MEASURE_WITH_UNIT(PLANE_ANGLE_MEASURE(0.0174532925),#425);
#425=(
NAMED_UNIT(*)
PLANE_ANGLE_UNIT()
SI_UNIT($,.RADIAN.)
);
#426=(
LENGTH_UNIT()
NAMED_UNIT(*)
SI_UNIT(.MILLI.,.METRE.)
);
ENDSEC;
END-ISO-10303-21;
