ISO-10303-21;
HEADER;
/* Generated by software containing ST-Developer
 * from STEP Tools, Inc. (www.steptools.com) 
 */
/* OPTION: using custom schema-name function */

FILE_DESCRIPTION(
/* description */ (''),
/* implementation_level */ '2;1');

FILE_NAME(
/* name */ '13578695.stp',
/* time_stamp */ '2020-05-09T12:12:30+08:00',
/* author */ (''),
/* organization */ (''),
/* preprocessor_version */ 'ST-DEVELOPER v16',
/* originating_system */ 'SIEMENS PLM Software NX 11.0',
/* authorisation */ '');

FILE_SCHEMA (('AUTOMOTIVE_DESIGN { 1 0 10303 214 3 1 1 1 }'));
ENDSEC;

DATA;
#10=SHAPE_REPRESENTATION_RELATIONSHIP('None',
'relationship between 13578695_01-SEAL-None and 13578695_01-SEAL-None',
#22,#11);
#11=ADVANCED_BREP_SHAPE_REPRESENTATION('13578695_01-SEAL-None',(#32),#639);
#12=SHAPE_DEFINITION_REPRESENTATION(#13,#22);
#13=PRODUCT_DEFINITION_SHAPE('','',#14);
#14=PRODUCT_DEFINITION(' ','',#16,#15);
#15=PRODUCT_DEFINITION_CONTEXT('part definition',#21,'design');
#16=PRODUCT_DEFINITION_FORMATION_WITH_SPECIFIED_SOURCE(' ',' ',#18,
 .NOT_KNOWN.);
#17=PRODUCT_RELATED_PRODUCT_CATEGORY('part','',(#18));
#18=PRODUCT('13578695_01-SEAL','13578695_01-SEAL',' ',(#19));
#19=PRODUCT_CONTEXT(' ',#21,'mechanical');
#20=APPLICATION_PROTOCOL_DEFINITION('international standard',
'automotive_design',2010,#21);
#21=APPLICATION_CONTEXT(
'core data for automotive mechanical design processes');
#22=SHAPE_REPRESENTATION('13578695_01-SEAL-None',(#364),#639);
#23=PRESENTATION_LAYER_ASSIGNMENT('1','Layer 1',(#32));
#24=STYLED_ITEM('',(#25),#32);
#25=PRESENTATION_STYLE_ASSIGNMENT((#26));
#26=SURFACE_STYLE_USAGE(.BOTH.,#27);
#27=SURFACE_SIDE_STYLE('',(#28));
#28=SURFACE_STYLE_FILL_AREA(#29);
#29=FILL_AREA_STYLE('',(#30));
#30=FILL_AREA_STYLE_COLOUR('',#31);
#31=COLOUR_RGB('Strong Brown',0.643137254901961,0.4,0.);
#32=MANIFOLD_SOLID_BREP('240M040',#33);
#33=CLOSED_SHELL('',(#56,#57,#58,#59,#60,#61,#62,#63,#64,#65,#66,#67,#68,
#69,#70,#71,#72,#73,#74,#75,#76,#77,#78,#79,#80,#81,#82,#83,#84,#85));
#34=CONICAL_SURFACE('',#393,0.564989623089513,34.9999999999996);
#35=CONICAL_SURFACE('',#395,0.564989623089509,35.0000000000001);
#36=CONICAL_SURFACE('',#399,0.564989623089506,35.0000000000005);
#37=CONICAL_SURFACE('',#403,0.587199748700083,14.3596068008441);
#38=CONICAL_SURFACE('',#407,0.849998103898372,44.9999200871);
#39=TOROIDAL_SURFACE('',#391,2.45,0.399999999999972);
#40=TOROIDAL_SURFACE('',#397,2.15,0.199999999999986);
#41=TOROIDAL_SURFACE('',#404,2.15000000000001,0.200000000000008);
#42=TOROIDAL_SURFACE('',#410,2.45,0.400000000000006);
#43=TOROIDAL_SURFACE('',#413,2.15000000000001,0.200000000000005);
#44=TOROIDAL_SURFACE('',#415,2.00000000000002,0.20000000000002);
#45=TOROIDAL_SURFACE('',#420,2.15,0.2);
#46=TOROIDAL_SURFACE('',#421,2.2,0.399999999999995);
#47=TOROIDAL_SURFACE('',#424,2.45,0.400000000000017);
#48=CYLINDRICAL_SURFACE('',#390,2.85);
#49=CYLINDRICAL_SURFACE('',#401,1.95);
#50=CYLINDRICAL_SURFACE('',#406,0.9);
#51=CYLINDRICAL_SURFACE('',#409,2.85);
#52=CYLINDRICAL_SURFACE('',#411,2.15);
#53=CYLINDRICAL_SURFACE('',#417,1.95);
#54=CYLINDRICAL_SURFACE('',#419,1.8);
#55=CYLINDRICAL_SURFACE('',#423,2.85);
#56=ADVANCED_FACE('',(#94,#95),#86,.T.);
#57=ADVANCED_FACE('',(#96,#97),#87,.T.);
#58=ADVANCED_FACE('',(#98,#99),#88,.T.);
#59=ADVANCED_FACE('',(#100,#101),#89,.T.);
#60=ADVANCED_FACE('',(#102,#103),#90,.T.);
#61=ADVANCED_FACE('',(#104,#105),#91,.T.);
#62=ADVANCED_FACE('',(#106,#107),#92,.T.);
#63=ADVANCED_FACE('',(#108,#109),#93,.T.);
#64=ADVANCED_FACE('',(#110,#111),#48,.T.);
#65=ADVANCED_FACE('',(#112,#113),#39,.T.);
#66=ADVANCED_FACE('',(#114,#115),#34,.F.);
#67=ADVANCED_FACE('',(#116,#117),#35,.F.);
#68=ADVANCED_FACE('',(#118,#119),#40,.F.);
#69=ADVANCED_FACE('',(#120,#121),#36,.F.);
#70=ADVANCED_FACE('',(#122,#123),#49,.T.);
#71=ADVANCED_FACE('',(#124,#125),#37,.F.);
#72=ADVANCED_FACE('',(#126,#127),#41,.F.);
#73=ADVANCED_FACE('',(#128,#129),#50,.F.);
#74=ADVANCED_FACE('',(#130,#131),#38,.F.);
#75=ADVANCED_FACE('',(#132,#133),#51,.T.);
#76=ADVANCED_FACE('',(#134,#135),#42,.T.);
#77=ADVANCED_FACE('',(#136,#137),#52,.T.);
#78=ADVANCED_FACE('',(#138,#139),#43,.F.);
#79=ADVANCED_FACE('',(#140,#141),#44,.F.);
#80=ADVANCED_FACE('',(#142,#143),#53,.T.);
#81=ADVANCED_FACE('',(#144,#145),#54,.T.);
#82=ADVANCED_FACE('',(#146,#147),#45,.F.);
#83=ADVANCED_FACE('',(#148,#149),#46,.F.);
#84=ADVANCED_FACE('',(#150,#151),#55,.T.);
#85=ADVANCED_FACE('',(#152,#153),#47,.T.);
#86=PLANE('',#367);
#87=PLANE('',#370);
#88=PLANE('',#373);
#89=PLANE('',#376);
#90=PLANE('',#379);
#91=PLANE('',#382);
#92=PLANE('',#385);
#93=PLANE('',#388);
#94=FACE_BOUND('',#154,.T.);
#95=FACE_BOUND('',#155,.T.);
#96=FACE_BOUND('',#156,.T.);
#97=FACE_BOUND('',#157,.T.);
#98=FACE_BOUND('',#158,.T.);
#99=FACE_BOUND('',#159,.T.);
#100=FACE_BOUND('',#160,.T.);
#101=FACE_BOUND('',#161,.T.);
#102=FACE_BOUND('',#162,.T.);
#103=FACE_BOUND('',#163,.T.);
#104=FACE_BOUND('',#164,.T.);
#105=FACE_BOUND('',#165,.T.);
#106=FACE_BOUND('',#166,.T.);
#107=FACE_BOUND('',#167,.T.);
#108=FACE_BOUND('',#168,.T.);
#109=FACE_BOUND('',#169,.T.);
#110=FACE_BOUND('',#170,.T.);
#111=FACE_BOUND('',#171,.T.);
#112=FACE_BOUND('',#172,.T.);
#113=FACE_BOUND('',#173,.T.);
#114=FACE_BOUND('',#174,.T.);
#115=FACE_BOUND('',#175,.T.);
#116=FACE_BOUND('',#176,.T.);
#117=FACE_BOUND('',#177,.T.);
#118=FACE_BOUND('',#178,.T.);
#119=FACE_BOUND('',#179,.T.);
#120=FACE_BOUND('',#180,.T.);
#121=FACE_BOUND('',#181,.T.);
#122=FACE_BOUND('',#182,.T.);
#123=FACE_BOUND('',#183,.T.);
#124=FACE_BOUND('',#184,.T.);
#125=FACE_BOUND('',#185,.T.);
#126=FACE_BOUND('',#186,.T.);
#127=FACE_BOUND('',#187,.T.);
#128=FACE_BOUND('',#188,.T.);
#129=FACE_BOUND('',#189,.T.);
#130=FACE_BOUND('',#190,.T.);
#131=FACE_BOUND('',#191,.T.);
#132=FACE_BOUND('',#192,.T.);
#133=FACE_BOUND('',#193,.T.);
#134=FACE_BOUND('',#194,.T.);
#135=FACE_BOUND('',#195,.T.);
#136=FACE_BOUND('',#196,.T.);
#137=FACE_BOUND('',#197,.T.);
#138=FACE_BOUND('',#198,.T.);
#139=FACE_BOUND('',#199,.T.);
#140=FACE_BOUND('',#200,.T.);
#141=FACE_BOUND('',#201,.T.);
#142=FACE_BOUND('',#202,.T.);
#143=FACE_BOUND('',#203,.T.);
#144=FACE_BOUND('',#204,.T.);
#145=FACE_BOUND('',#205,.T.);
#146=FACE_BOUND('',#206,.T.);
#147=FACE_BOUND('',#207,.T.);
#148=FACE_BOUND('',#208,.T.);
#149=FACE_BOUND('',#209,.T.);
#150=FACE_BOUND('',#210,.T.);
#151=FACE_BOUND('',#211,.T.);
#152=FACE_BOUND('',#212,.T.);
#153=FACE_BOUND('',#213,.T.);
#154=EDGE_LOOP('',(#214));
#155=EDGE_LOOP('',(#215));
#156=EDGE_LOOP('',(#216));
#157=EDGE_LOOP('',(#217));
#158=EDGE_LOOP('',(#218));
#159=EDGE_LOOP('',(#219));
#160=EDGE_LOOP('',(#220));
#161=EDGE_LOOP('',(#221));
#162=EDGE_LOOP('',(#222));
#163=EDGE_LOOP('',(#223));
#164=EDGE_LOOP('',(#224));
#165=EDGE_LOOP('',(#225));
#166=EDGE_LOOP('',(#226));
#167=EDGE_LOOP('',(#227));
#168=EDGE_LOOP('',(#228));
#169=EDGE_LOOP('',(#229));
#170=EDGE_LOOP('',(#230));
#171=EDGE_LOOP('',(#231));
#172=EDGE_LOOP('',(#232));
#173=EDGE_LOOP('',(#233));
#174=EDGE_LOOP('',(#234));
#175=EDGE_LOOP('',(#235));
#176=EDGE_LOOP('',(#236));
#177=EDGE_LOOP('',(#237));
#178=EDGE_LOOP('',(#238));
#179=EDGE_LOOP('',(#239));
#180=EDGE_LOOP('',(#240));
#181=EDGE_LOOP('',(#241));
#182=EDGE_LOOP('',(#242));
#183=EDGE_LOOP('',(#243));
#184=EDGE_LOOP('',(#244));
#185=EDGE_LOOP('',(#245));
#186=EDGE_LOOP('',(#246));
#187=EDGE_LOOP('',(#247));
#188=EDGE_LOOP('',(#248));
#189=EDGE_LOOP('',(#249));
#190=EDGE_LOOP('',(#250));
#191=EDGE_LOOP('',(#251));
#192=EDGE_LOOP('',(#252));
#193=EDGE_LOOP('',(#253));
#194=EDGE_LOOP('',(#254));
#195=EDGE_LOOP('',(#255));
#196=EDGE_LOOP('',(#256));
#197=EDGE_LOOP('',(#257));
#198=EDGE_LOOP('',(#258));
#199=EDGE_LOOP('',(#259));
#200=EDGE_LOOP('',(#260));
#201=EDGE_LOOP('',(#261));
#202=EDGE_LOOP('',(#262));
#203=EDGE_LOOP('',(#263));
#204=EDGE_LOOP('',(#264));
#205=EDGE_LOOP('',(#265));
#206=EDGE_LOOP('',(#266));
#207=EDGE_LOOP('',(#267));
#208=EDGE_LOOP('',(#268));
#209=EDGE_LOOP('',(#269));
#210=EDGE_LOOP('',(#270));
#211=EDGE_LOOP('',(#271));
#212=EDGE_LOOP('',(#272));
#213=EDGE_LOOP('',(#273));
#214=ORIENTED_EDGE('',*,*,#304,.T.);
#215=ORIENTED_EDGE('',*,*,#305,.T.);
#216=ORIENTED_EDGE('',*,*,#306,.F.);
#217=ORIENTED_EDGE('',*,*,#307,.F.);
#218=ORIENTED_EDGE('',*,*,#308,.F.);
#219=ORIENTED_EDGE('',*,*,#309,.T.);
#220=ORIENTED_EDGE('',*,*,#310,.T.);
#221=ORIENTED_EDGE('',*,*,#311,.F.);
#222=ORIENTED_EDGE('',*,*,#312,.T.);
#223=ORIENTED_EDGE('',*,*,#313,.F.);
#224=ORIENTED_EDGE('',*,*,#314,.T.);
#225=ORIENTED_EDGE('',*,*,#315,.F.);
#226=ORIENTED_EDGE('',*,*,#316,.F.);
#227=ORIENTED_EDGE('',*,*,#317,.T.);
#228=ORIENTED_EDGE('',*,*,#318,.T.);
#229=ORIENTED_EDGE('',*,*,#319,.T.);
#230=ORIENTED_EDGE('',*,*,#304,.F.);
#231=ORIENTED_EDGE('',*,*,#320,.T.);
#232=ORIENTED_EDGE('',*,*,#320,.F.);
#233=ORIENTED_EDGE('',*,*,#306,.T.);
#234=ORIENTED_EDGE('',*,*,#305,.F.);
#235=ORIENTED_EDGE('',*,*,#321,.T.);
#236=ORIENTED_EDGE('',*,*,#322,.F.);
#237=ORIENTED_EDGE('',*,*,#321,.F.);
#238=ORIENTED_EDGE('',*,*,#323,.F.);
#239=ORIENTED_EDGE('',*,*,#307,.T.);
#240=ORIENTED_EDGE('',*,*,#324,.F.);
#241=ORIENTED_EDGE('',*,*,#322,.T.);
#242=ORIENTED_EDGE('',*,*,#325,.T.);
#243=ORIENTED_EDGE('',*,*,#323,.T.);
#244=ORIENTED_EDGE('',*,*,#326,.F.);
#245=ORIENTED_EDGE('',*,*,#324,.T.);
#246=ORIENTED_EDGE('',*,*,#309,.F.);
#247=ORIENTED_EDGE('',*,*,#325,.F.);
#248=ORIENTED_EDGE('',*,*,#327,.F.);
#249=ORIENTED_EDGE('',*,*,#326,.T.);
#250=ORIENTED_EDGE('',*,*,#311,.T.);
#251=ORIENTED_EDGE('',*,*,#327,.T.);
#252=ORIENTED_EDGE('',*,*,#308,.T.);
#253=ORIENTED_EDGE('',*,*,#328,.F.);
#254=ORIENTED_EDGE('',*,*,#328,.T.);
#255=ORIENTED_EDGE('',*,*,#312,.F.);
#256=ORIENTED_EDGE('',*,*,#310,.F.);
#257=ORIENTED_EDGE('',*,*,#314,.F.);
#258=ORIENTED_EDGE('',*,*,#329,.F.);
#259=ORIENTED_EDGE('',*,*,#313,.T.);
#260=ORIENTED_EDGE('',*,*,#330,.T.);
#261=ORIENTED_EDGE('',*,*,#315,.T.);
#262=ORIENTED_EDGE('',*,*,#331,.T.);
#263=ORIENTED_EDGE('',*,*,#329,.T.);
#264=ORIENTED_EDGE('',*,*,#332,.F.);
#265=ORIENTED_EDGE('',*,*,#330,.F.);
#266=ORIENTED_EDGE('',*,*,#317,.F.);
#267=ORIENTED_EDGE('',*,*,#331,.F.);
#268=ORIENTED_EDGE('',*,*,#332,.T.);
#269=ORIENTED_EDGE('',*,*,#319,.F.);
#270=ORIENTED_EDGE('',*,*,#316,.T.);
#271=ORIENTED_EDGE('',*,*,#333,.F.);
#272=ORIENTED_EDGE('',*,*,#333,.T.);
#273=ORIENTED_EDGE('',*,*,#318,.F.);
#274=VERTEX_POINT('',#549);
#275=VERTEX_POINT('',#551);
#276=VERTEX_POINT('',#554);
#277=VERTEX_POINT('',#556);
#278=VERTEX_POINT('',#559);
#279=VERTEX_POINT('',#561);
#280=VERTEX_POINT('',#564);
#281=VERTEX_POINT('',#566);
#282=VERTEX_POINT('',#569);
#283=VERTEX_POINT('',#571);
#284=VERTEX_POINT('',#574);
#285=VERTEX_POINT('',#576);
#286=VERTEX_POINT('',#579);
#287=VERTEX_POINT('',#581);
#288=VERTEX_POINT('',#584);
#289=VERTEX_POINT('',#586);
#290=VERTEX_POINT('',#589);
#291=VERTEX_POINT('',#593);
#292=VERTEX_POINT('',#596);
#293=VERTEX_POINT('',#599);
#294=VERTEX_POINT('',#602);
#295=VERTEX_POINT('',#605);
#296=VERTEX_POINT('',#608);
#297=VERTEX_POINT('',#612);
#298=VERTEX_POINT('',#616);
#299=VERTEX_POINT('',#621);
#300=VERTEX_POINT('',#624);
#301=VERTEX_POINT('',#627);
#302=VERTEX_POINT('',#630);
#303=VERTEX_POINT('',#635);
#304=EDGE_CURVE('',#274,#274,#334,.T.);
#305=EDGE_CURVE('',#275,#275,#335,.T.);
#306=EDGE_CURVE('',#276,#276,#336,.T.);
#307=EDGE_CURVE('',#277,#277,#337,.T.);
#308=EDGE_CURVE('',#278,#278,#338,.T.);
#309=EDGE_CURVE('',#279,#279,#339,.T.);
#310=EDGE_CURVE('',#280,#280,#340,.T.);
#311=EDGE_CURVE('',#281,#281,#341,.T.);
#312=EDGE_CURVE('',#282,#282,#342,.T.);
#313=EDGE_CURVE('',#283,#283,#343,.T.);
#314=EDGE_CURVE('',#284,#284,#344,.T.);
#315=EDGE_CURVE('',#285,#285,#345,.T.);
#316=EDGE_CURVE('',#286,#286,#346,.T.);
#317=EDGE_CURVE('',#287,#287,#347,.T.);
#318=EDGE_CURVE('',#288,#288,#348,.T.);
#319=EDGE_CURVE('',#289,#289,#349,.T.);
#320=EDGE_CURVE('',#290,#290,#350,.T.);
#321=EDGE_CURVE('',#291,#291,#351,.T.);
#322=EDGE_CURVE('',#292,#292,#352,.T.);
#323=EDGE_CURVE('',#293,#293,#353,.T.);
#324=EDGE_CURVE('',#294,#294,#354,.T.);
#325=EDGE_CURVE('',#295,#295,#355,.T.);
#326=EDGE_CURVE('',#296,#296,#356,.T.);
#327=EDGE_CURVE('',#297,#297,#357,.T.);
#328=EDGE_CURVE('',#298,#298,#358,.T.);
#329=EDGE_CURVE('',#299,#299,#359,.T.);
#330=EDGE_CURVE('',#300,#300,#360,.T.);
#331=EDGE_CURVE('',#301,#301,#361,.T.);
#332=EDGE_CURVE('',#302,#302,#362,.T.);
#333=EDGE_CURVE('',#303,#303,#363,.T.);
#334=CIRCLE('',#365,2.85);
#335=CIRCLE('',#366,1.37022829203068);
#336=CIRCLE('',#368,2.44999999736101);
#337=CIRCLE('',#369,2.15);
#338=CIRCLE('',#371,2.85);
#339=CIRCLE('',#372,2.15);
#340=CIRCLE('',#374,2.15);
#341=CIRCLE('',#375,1.19999769115886);
#342=CIRCLE('',#377,2.449999997361);
#343=CIRCLE('',#378,2.15);
#344=CIRCLE('',#380,2.15);
#345=CIRCLE('',#381,1.99999996946749);
#346=CIRCLE('',#383,2.85);
#347=CIRCLE('',#384,2.15);
#348=CIRCLE('',#386,2.449999997361);
#349=CIRCLE('',#387,2.1999999851411);
#350=CIRCLE('',#389,2.85);
#351=CIRCLE('',#392,0.599999999999996);
#352=CIRCLE('',#394,1.1);
#353=CIRCLE('',#396,1.95);
#354=CIRCLE('',#398,0.599999999999996);
#355=CIRCLE('',#400,1.95);
#356=CIRCLE('',#402,0.9);
#357=CIRCLE('',#405,0.900000000000113);
#358=CIRCLE('',#408,2.85);
#359=CIRCLE('',#412,1.95);
#360=CIRCLE('',#414,1.8);
#361=CIRCLE('',#416,1.95);
#362=CIRCLE('',#418,1.8);
#363=CIRCLE('',#422,2.85);
#364=AXIS2_PLACEMENT_3D('',#547,#425,#426);
#365=AXIS2_PLACEMENT_3D('',#548,#427,#428);
#366=AXIS2_PLACEMENT_3D('',#550,#429,#430);
#367=AXIS2_PLACEMENT_3D('',#552,#431,#432);
#368=AXIS2_PLACEMENT_3D('',#553,#433,#434);
#369=AXIS2_PLACEMENT_3D('',#555,#435,#436);
#370=AXIS2_PLACEMENT_3D('',#557,#437,#438);
#371=AXIS2_PLACEMENT_3D('',#558,#439,#440);
#372=AXIS2_PLACEMENT_3D('',#560,#441,#442);
#373=AXIS2_PLACEMENT_3D('',#562,#443,#444);
#374=AXIS2_PLACEMENT_3D('',#563,#445,#446);
#375=AXIS2_PLACEMENT_3D('',#565,#447,#448);
#376=AXIS2_PLACEMENT_3D('',#567,#449,#450);
#377=AXIS2_PLACEMENT_3D('',#568,#451,#452);
#378=AXIS2_PLACEMENT_3D('',#570,#453,#454);
#379=AXIS2_PLACEMENT_3D('',#572,#455,#456);
#380=AXIS2_PLACEMENT_3D('',#573,#457,#458);
#381=AXIS2_PLACEMENT_3D('',#575,#459,#460);
#382=AXIS2_PLACEMENT_3D('',#577,#461,#462);
#383=AXIS2_PLACEMENT_3D('',#578,#463,#464);
#384=AXIS2_PLACEMENT_3D('',#580,#465,#466);
#385=AXIS2_PLACEMENT_3D('',#582,#467,#468);
#386=AXIS2_PLACEMENT_3D('',#583,#469,#470);
#387=AXIS2_PLACEMENT_3D('',#585,#471,#472);
#388=AXIS2_PLACEMENT_3D('',#587,#473,#474);
#389=AXIS2_PLACEMENT_3D('',#588,#475,#476);
#390=AXIS2_PLACEMENT_3D('',#590,#477,#478);
#391=AXIS2_PLACEMENT_3D('',#591,#479,#480);
#392=AXIS2_PLACEMENT_3D('',#592,#481,#482);
#393=AXIS2_PLACEMENT_3D('',#594,#483,#484);
#394=AXIS2_PLACEMENT_3D('',#595,#485,#486);
#395=AXIS2_PLACEMENT_3D('',#597,#487,#488);
#396=AXIS2_PLACEMENT_3D('',#598,#489,#490);
#397=AXIS2_PLACEMENT_3D('',#600,#491,#492);
#398=AXIS2_PLACEMENT_3D('',#601,#493,#494);
#399=AXIS2_PLACEMENT_3D('',#603,#495,#496);
#400=AXIS2_PLACEMENT_3D('',#604,#497,#498);
#401=AXIS2_PLACEMENT_3D('',#606,#499,#500);
#402=AXIS2_PLACEMENT_3D('',#607,#501,#502);
#403=AXIS2_PLACEMENT_3D('',#609,#503,#504);
#404=AXIS2_PLACEMENT_3D('',#610,#505,#506);
#405=AXIS2_PLACEMENT_3D('',#611,#507,#508);
#406=AXIS2_PLACEMENT_3D('',#613,#509,#510);
#407=AXIS2_PLACEMENT_3D('',#614,#511,#512);
#408=AXIS2_PLACEMENT_3D('',#615,#513,#514);
#409=AXIS2_PLACEMENT_3D('',#617,#515,#516);
#410=AXIS2_PLACEMENT_3D('',#618,#517,#518);
#411=AXIS2_PLACEMENT_3D('',#619,#519,#520);
#412=AXIS2_PLACEMENT_3D('',#620,#521,#522);
#413=AXIS2_PLACEMENT_3D('',#622,#523,#524);
#414=AXIS2_PLACEMENT_3D('',#623,#525,#526);
#415=AXIS2_PLACEMENT_3D('',#625,#527,#528);
#416=AXIS2_PLACEMENT_3D('',#626,#529,#530);
#417=AXIS2_PLACEMENT_3D('',#628,#531,#532);
#418=AXIS2_PLACEMENT_3D('',#629,#533,#534);
#419=AXIS2_PLACEMENT_3D('',#631,#535,#536);
#420=AXIS2_PLACEMENT_3D('',#632,#537,#538);
#421=AXIS2_PLACEMENT_3D('',#633,#539,#540);
#422=AXIS2_PLACEMENT_3D('',#634,#541,#542);
#423=AXIS2_PLACEMENT_3D('',#636,#543,#544);
#424=AXIS2_PLACEMENT_3D('',#637,#545,#546);
#425=DIRECTION('',(0.,0.,1.));
#426=DIRECTION('',(1.,0.,0.));
#427=DIRECTION('',(1.,0.,0.));
#428=DIRECTION('',(0.,1.,0.));
#429=DIRECTION('',(-1.,0.,0.));
#430=DIRECTION('',(0.,1.,0.));
#431=DIRECTION('',(1.,-1.22460635382238E-16,0.));
#432=DIRECTION('',(-1.22460635382238E-16,-1.,0.));
#433=DIRECTION('',(1.,0.,0.));
#434=DIRECTION('',(0.,1.,0.));
#435=DIRECTION('',(-1.,0.,0.));
#436=DIRECTION('',(0.,-1.,0.));
#437=DIRECTION('',(-1.,1.33226762955019E-16,0.));
#438=DIRECTION('',(0.,0.,-1.));
#439=DIRECTION('',(-1.,0.,0.));
#440=DIRECTION('',(0.,-1.,0.));
#441=DIRECTION('',(-1.,0.,0.));
#442=DIRECTION('',(0.,-1.,0.));
#443=DIRECTION('',(1.,-1.53134210293125E-16,0.));
#444=DIRECTION('',(-1.53089346754953E-16,-1.,0.));
#445=DIRECTION('',(-1.,0.,0.));
#446=DIRECTION('',(0.,-1.,0.));
#447=DIRECTION('',(-1.,0.,0.));
#448=DIRECTION('',(0.,-1.,0.));
#449=DIRECTION('',(-1.,0.,0.));
#450=DIRECTION('',(0.,0.,-1.));
#451=DIRECTION('',(-1.,0.,0.));
#452=DIRECTION('',(0.,-1.,0.));
#453=DIRECTION('',(-1.,0.,0.));
#454=DIRECTION('',(0.,-1.,0.));
#455=DIRECTION('',(-1.,1.77635683940025E-16,0.));
#456=DIRECTION('',(0.,0.,-1.));
#457=DIRECTION('',(1.,0.,0.));
#458=DIRECTION('',(0.,1.,0.));
#459=DIRECTION('',(1.,0.,0.));
#460=DIRECTION('',(0.,-1.,0.));
#461=DIRECTION('',(1.,0.,0.));
#462=DIRECTION('',(0.,-1.,0.));
#463=DIRECTION('',(-1.,0.,0.));
#464=DIRECTION('',(0.,-1.,0.));
#465=DIRECTION('',(-1.,0.,0.));
#466=DIRECTION('',(0.,-1.,0.));
#467=DIRECTION('',(1.,-1.53134210293125E-16,0.));
#468=DIRECTION('',(-1.53089346754953E-16,-1.,0.));
#469=DIRECTION('',(-1.,0.,0.));
#470=DIRECTION('',(0.,-1.,0.));
#471=DIRECTION('',(1.,0.,0.));
#472=DIRECTION('',(0.,1.,0.));
#473=DIRECTION('',(-1.,1.77635683940025E-16,0.));
#474=DIRECTION('',(0.,0.,-1.));
#475=DIRECTION('',(1.,0.,0.));
#476=DIRECTION('',(0.,1.,0.));
#477=DIRECTION('',(1.,0.,0.));
#478=DIRECTION('',(0.,0.999846110441467,-0.0175429597009511));
#479=DIRECTION('',(1.,0.,0.));
#480=DIRECTION('',(0.,-1.,0.));
#481=DIRECTION('',(-1.,0.,0.));
#482=DIRECTION('',(0.,1.,0.));
#483=DIRECTION('',(1.,0.,0.));
#484=DIRECTION('',(-3.14876536080337E-15,-0.999334303978307,0.0364821722515673));
#485=DIRECTION('',(1.,0.,0.));
#486=DIRECTION('',(0.,-1.,0.));
#487=DIRECTION('',(-1.,0.,0.));
#488=DIRECTION('',(-3.12215433279337E-16,0.998967120004598,0.0454388946797645));
#489=DIRECTION('',(-1.,0.,0.));
#490=DIRECTION('',(0.,-1.,0.));
#491=DIRECTION('',(1.,0.,0.));
#492=DIRECTION('',(0.,1.,0.));
#493=DIRECTION('',(1.,0.,0.));
#494=DIRECTION('',(0.,-1.,0.));
#495=DIRECTION('',(1.,0.,0.));
#496=DIRECTION('',(4.70458220770959E-15,-0.998967120004598,0.0454388946797649));
#497=DIRECTION('',(1.,0.,0.));
#498=DIRECTION('',(0.,1.,0.));
#499=DIRECTION('',(1.,0.,0.));
#500=DIRECTION('',(0.,0.999671286912333,-0.025638216065883));
#501=DIRECTION('',(1.,0.,0.));
#502=DIRECTION('',(0.,-1.,0.));
#503=DIRECTION('',(-1.,0.,0.));
#504=DIRECTION('',(-2.07889177978865E-16,0.998457186998745,0.0555269820047355));
#505=DIRECTION('',(1.,0.,0.));
#506=DIRECTION('',(0.,1.,0.));
#507=DIRECTION('',(0.999999999999749,7.0830454686653E-7,9.18354961579912E-41));
#508=DIRECTION('',(7.08304547344543E-7,-0.999999999999749,-8.934339325042E-19));
#509=DIRECTION('',(-1.,0.,0.));
#510=DIRECTION('',(4.8186763221578E-16,0.998457186998745,0.0555269820047333));
#511=DIRECTION('',(-1.,0.,0.));
#512=DIRECTION('',(6.27265001638747E-15,-0.999132068324313,-0.0416546521529264));
#513=DIRECTION('',(-1.,0.,0.));
#514=DIRECTION('',(0.,-1.,0.));
#515=DIRECTION('',(1.,0.,0.));
#516=DIRECTION('',(0.,0.999846110441467,-0.01754295970095));
#517=DIRECTION('',(1.,3.895519386753E-16,7.93588692347686E-16));
#518=DIRECTION('',(0.,-1.,0.));
#519=DIRECTION('',(1.,0.,0.));
#520=DIRECTION('',(0.,0.999729595745969,-0.02325371775869));
#521=DIRECTION('',(-1.,0.,0.));
#522=DIRECTION('',(0.,-1.,0.));
#523=DIRECTION('',(1.,0.,0.));
#524=DIRECTION('',(0.,1.,0.));
#525=DIRECTION('',(-1.,0.,0.));
#526=DIRECTION('',(0.,-1.,0.));
#527=DIRECTION('',(1.,0.,0.));
#528=DIRECTION('',(0.,-1.,0.));
#529=DIRECTION('',(1.,0.,0.));
#530=DIRECTION('',(0.,1.,0.));
#531=DIRECTION('',(1.,0.,0.));
#532=DIRECTION('',(0.,0.999671286912333,-0.025638216065883));
#533=DIRECTION('',(1.,0.,0.));
#534=DIRECTION('',(0.,1.,0.));
#535=DIRECTION('',(1.,1.62832710278356E-15,1.77635683940024E-15));
#536=DIRECTION('',(-1.44560289664734E-15,0.999614222337484,-0.0277742056705075));
#537=DIRECTION('',(1.,0.,0.));
#538=DIRECTION('',(0.,1.,0.));
#539=DIRECTION('',(1.,1.41301085792538E-15,-1.62624946253472E-26));
#540=DIRECTION('',(0.,1.,0.));
#541=DIRECTION('',(-1.,0.,0.));
#542=DIRECTION('',(0.,-1.,0.));
#543=DIRECTION('',(1.,0.,0.));
#544=DIRECTION('',(-1.67385598559166E-15,0.999846110441467,-0.0175429597009509));
#545=DIRECTION('',(1.,1.0907454277019E-15,-2.89091572539639E-25));
#546=DIRECTION('',(0.,1.,0.));
#547=CARTESIAN_POINT('',(0.,0.,0.));
#548=CARTESIAN_POINT('',(8.62816615085482E-32,-2.22044604925031E-16,2.22044604925031E-16));
#549=CARTESIAN_POINT('',(3.49012810839378E-16,2.85,0.));
#550=CARTESIAN_POINT('',(-2.22044604925031E-16,-6.10622663543836E-16,2.22044604925031E-16));
#551=CARTESIAN_POINT('',(-5.42455776642363E-17,1.37022829203067,2.22044604925031E-16));
#552=CARTESIAN_POINT('',(4.18815373007253E-16,3.42,3.42));
#553=CARTESIAN_POINT('',(-0.800000000000001,2.22044604925031E-16,-8.88178419700125E-16));
#554=CARTESIAN_POINT('',(-0.8,2.44999999736101,3.0002855636331E-16));
#555=CARTESIAN_POINT('',(-0.8,-1.11022302462516E-16,-3.33066907387547E-16));
#556=CARTESIAN_POINT('',(-0.8,-2.15,-4.44089209850063E-16));
#557=CARTESIAN_POINT('',(-0.8,2.93999999683321,2.93999999683321));
#558=CARTESIAN_POINT('',(-1.45,-5.55111512312578E-16,-2.22044604925031E-16));
#559=CARTESIAN_POINT('',(-1.45,-2.85,-4.44089209850063E-16));
#560=CARTESIAN_POINT('',(-1.45,5.55111512312578E-16,8.88178419700125E-16));
#561=CARTESIAN_POINT('',(-1.45,-2.15,0.));
#562=CARTESIAN_POINT('',(-1.45,3.42,3.42));
#563=CARTESIAN_POINT('',(-6.5,9.99200722162641E-16,5.55111512312578E-16));
#564=CARTESIAN_POINT('',(-6.5,-2.15,0.));
#565=CARTESIAN_POINT('',(-6.50000103854073,9.43689570931383E-16,0.));
#566=CARTESIAN_POINT('',(-6.50000103854073,-1.19999769115886,1.46953173951375E-16));
#567=CARTESIAN_POINT('',(-6.5,2.58,2.58));
#568=CARTESIAN_POINT('',(-2.25,2.22044604925031E-16,-2.22044604925031E-16));
#569=CARTESIAN_POINT('',(-2.25,-2.449999997361,-4.44089209850063E-16));
#570=CARTESIAN_POINT('',(-2.25,4.44089209850063E-16,4.44089209850063E-16));
#571=CARTESIAN_POINT('',(-2.25,-2.15,-4.44089209850063E-16));
#572=CARTESIAN_POINT('',(-2.25,2.93999999683321,2.93999999683321));
#573=CARTESIAN_POINT('',(-5.7,7.7715611723761E-16,-1.11022302462516E-16));
#574=CARTESIAN_POINT('',(-5.7,2.15,0.));
#575=CARTESIAN_POINT('',(-5.7,1.11022302462516E-16,2.22044604925031E-16));
#576=CARTESIAN_POINT('',(-5.7,-1.99999996946749,0.));
#577=CARTESIAN_POINT('',(-5.7,2.58,2.58));
#578=CARTESIAN_POINT('',(-2.9,4.44089209850063E-16,-6.66133814775094E-16));
#579=CARTESIAN_POINT('',(-2.9,-2.85,-4.44089209850063E-16));
#580=CARTESIAN_POINT('',(-2.9,5.55111512312578E-16,2.22044604925031E-16));
#581=CARTESIAN_POINT('',(-2.9,-2.15,4.44089209850063E-16));
#582=CARTESIAN_POINT('',(-2.9,3.42,3.42));
#583=CARTESIAN_POINT('',(-3.7,3.33066907387547E-16,4.44089209850063E-16));
#584=CARTESIAN_POINT('',(-3.7,-2.449999997361,-4.44089209850063E-16));
#585=CARTESIAN_POINT('',(-3.7,5.55111512312578E-16,1.11022302462516E-16));
#586=CARTESIAN_POINT('',(-3.7,2.1999999851411,0.));
#587=CARTESIAN_POINT('',(-3.7,2.93999999683321,2.93999999683321));
#588=CARTESIAN_POINT('',(-0.400000000000001,1.11022302462516E-16,-6.66133814775094E-16));
#589=CARTESIAN_POINT('',(-0.4,2.85,3.49024337756996E-16));
#590=CARTESIAN_POINT('',(-0.450000000000001,2.66453525910038E-15,6.66133814775094E-16));
#591=CARTESIAN_POINT('',(-0.400000000000029,4.88498130835069E-15,3.10862446895044E-15));
#592=CARTESIAN_POINT('',(-1.1,-9.15933995315754E-16,-1.11022302462516E-16));
#593=CARTESIAN_POINT('',(-1.1,0.599999999999996,0.));
#594=CARTESIAN_POINT('',(-1.15,2.63893507556209E-15,1.40164710148799E-15));
#595=CARTESIAN_POINT('',(-1.81407400337106,-4.44089209850063E-16,-1.66533453693773E-16));
#596=CARTESIAN_POINT('',(-1.81407400337106,-1.1,0.));
#597=CARTESIAN_POINT('',(-1.05,-5.52577992319349E-16,-8.06601050364841E-16));
#598=CARTESIAN_POINT('',(-0.999999999999998,-2.77555756156289E-16,-3.33066907387547E-16));
#599=CARTESIAN_POINT('',(-0.999999999999999,-1.95,0.));
#600=CARTESIAN_POINT('',(-0.999999999999986,-1.5439845784322E-15,-8.88178419700125E-16));
#601=CARTESIAN_POINT('',(-2.52814800674213,-4.44089209850063E-16,0.));
#602=CARTESIAN_POINT('',(-2.52814800674213,-0.599999999999996,-1.11022302462516E-16));
#603=CARTESIAN_POINT('',(-2.57814800674213,-2.63005300880601E-15,-1.76255892598359E-15));
#604=CARTESIAN_POINT('',(-1.25,4.99600361081321E-16,-3.33066907387547E-16));
#605=CARTESIAN_POINT('',(-1.25,1.95,2.38806125833734E-16));
#606=CARTESIAN_POINT('',(-1.3,4.44089209850063E-16,8.88178419700125E-16));
#607=CARTESIAN_POINT('',(-3.7,-4.44089209850063E-16,1.11022302462516E-16));
#608=CARTESIAN_POINT('',(-3.7,-0.9,-1.11022302462516E-16));
#609=CARTESIAN_POINT('',(-2.47814800674212,9.43689570931383E-16,-8.60422844084496E-16));
#610=CARTESIAN_POINT('',(-1.25,-4.64744521936113E-16,-1.55431223447522E-15));
#611=CARTESIAN_POINT('',(-6.20000063747409,-1.12992948331225E-13,1.11022302462516E-16));
#612=CARTESIAN_POINT('',(-6.2,-0.9,1.10218211923262E-16));
#613=CARTESIAN_POINT('',(-3.65,-1.11022302462516E-15,4.99600361081321E-16));
#614=CARTESIAN_POINT('',(-6.15000047495979,9.64088708465772E-16,-7.61395715022128E-16));
#615=CARTESIAN_POINT('',(-1.85,1.11022302462516E-16,0.));
#616=CARTESIAN_POINT('',(-1.85,-2.85,-6.98048675513991E-16));
#617=CARTESIAN_POINT('',(-1.9,-3.99680288865056E-15,-2.44249065417534E-15));
#618=CARTESIAN_POINT('',(-1.85,-1.33226762955019E-15,-1.99840144432529E-15));
#619=CARTESIAN_POINT('',(-6.55,-2.66453525910038E-15,-1.4432899320127E-15));
#620=CARTESIAN_POINT('',(-2.45,5.55111512312578E-17,1.11022302462516E-16));
#621=CARTESIAN_POINT('',(-2.45,-1.95,0.));
#622=CARTESIAN_POINT('',(-2.45000000000001,-4.53900483090936E-15,-4.21884749357559E-15));
#623=CARTESIAN_POINT('',(-5.5,3.88578058618805E-16,1.11022302462516E-16));
#624=CARTESIAN_POINT('',(-5.5,-1.8,-4.40872847693047E-16));
#625=CARTESIAN_POINT('',(-5.5,2.57571720423225E-15,1.45154615636927E-15));
#626=CARTESIAN_POINT('',(-2.7,2.77555756156289E-16,2.22044604925031E-16));
#627=CARTESIAN_POINT('',(-2.7,1.95,2.38806125833734E-16));
#628=CARTESIAN_POINT('',(-2.75,4.44089209850063E-16,8.88178419700125E-16));
#629=CARTESIAN_POINT('',(-4.1,8.88178419700125E-16,0.));
#630=CARTESIAN_POINT('',(-4.1,1.8,2.20436423846524E-16));
#631=CARTESIAN_POINT('',(-5.55,-1.55431223447522E-15,-2.77555756156289E-15));
#632=CARTESIAN_POINT('',(-2.7,-3.71795617548884E-16,1.23289665075827E-15));
#633=CARTESIAN_POINT('',(-4.09999999999999,3.22974076530281E-16,6.50499785013537E-27));
#634=CARTESIAN_POINT('',(-3.3,3.33066907387547E-16,-2.22044604925031E-16));
#635=CARTESIAN_POINT('',(-3.3,-2.85,-6.98048675513991E-16));
#636=CARTESIAN_POINT('',(-3.35000000000001,-8.88178419700118E-16,-1.11022302462515E-15));
#637=CARTESIAN_POINT('',(-3.29999999999998,-8.8817841970012E-16,1.11022302462516E-15));
#638=MECHANICAL_DESIGN_GEOMETRIC_PRESENTATION_REPRESENTATION('',(#24),#639);
#639=(
GEOMETRIC_REPRESENTATION_CONTEXT(3)
GLOBAL_UNCERTAINTY_ASSIGNED_CONTEXT((#640))
GLOBAL_UNIT_ASSIGNED_CONTEXT((#646,#642,#641))
REPRESENTATION_CONTEXT('13578695','TOP_LEVEL_ASSEMBLY_PART')
);
#640=UNCERTAINTY_MEASURE_WITH_UNIT(LENGTH_MEASURE(0.0001),#646,
'DISTANCE_ACCURACY_VALUE','Maximum Tolerance applied to model');
#641=(
NAMED_UNIT(*)
SI_UNIT($,.STERADIAN.)
SOLID_ANGLE_UNIT()
);
#642=(
CONVERSION_BASED_UNIT('DEGREE',#644)
NAMED_UNIT(#643)
PLANE_ANGLE_UNIT()
);
#643=DIMENSIONAL_EXPONENTS(0.,0.,0.,0.,0.,0.,0.);
#644=PLANE_ANGLE_MEASURE_WITH_UNIT(PLANE_ANGLE_MEASURE(0.0174532925),#645);
#645=(
NAMED_UNIT(*)
PLANE_ANGLE_UNIT()
SI_UNIT($,.RADIAN.)
);
#646=(
LENGTH_UNIT()
NAMED_UNIT(*)
SI_UNIT(.MILLI.,.METRE.)
);
ENDSEC;
END-ISO-10303-21;
