ISO-10303-21;
HEADER;
/* Generated by software containing ST-Developer
 * from STEP Tools, Inc. (www.steptools.com) 
 */
/* OPTION: using custom schema-name function */

FILE_DESCRIPTION(
/* description */ (''),
/* implementation_level */ '2;1');

FILE_NAME(
/* name */ '15305169.stp',
/* time_stamp */ '2020-05-22T14:34:59+08:00',
/* author */ (''),
/* organization */ (''),
/* preprocessor_version */ 'ST-DEVELOPER v16',
/* originating_system */ 'SIEMENS PLM Software NX 11.0',
/* authorisation */ '');

FILE_SCHEMA (('AUTOMOTIVE_DESIGN { 1 0 10303 214 3 1 1 1 }'));
ENDSEC;

DATA;
#10=SHAPE_REPRESENTATION_RELATIONSHIP('None',
'relationship between 15305169_01AC-SEAL-None and 15305169_01AC-SEAL-N
one',#22,#11);
#11=ADVANCED_BREP_SHAPE_REPRESENTATION('15305169_01AC-SEAL-None',(#32),
#485);
#12=SHAPE_DEFINITION_REPRESENTATION(#13,#22);
#13=PRODUCT_DEFINITION_SHAPE('','',#14);
#14=PRODUCT_DEFINITION(' ','',#16,#15);
#15=PRODUCT_DEFINITION_CONTEXT('part definition',#21,'design');
#16=PRODUCT_DEFINITION_FORMATION_WITH_SPECIFIED_SOURCE(' ',' ',#18,
 .NOT_KNOWN.);
#17=PRODUCT_RELATED_PRODUCT_CATEGORY('part','',(#18));
#18=PRODUCT('15305169_01AC-SEAL','15305169_01AC-SEAL',' ',(#19));
#19=PRODUCT_CONTEXT(' ',#21,'mechanical');
#20=APPLICATION_PROTOCOL_DEFINITION('international standard',
'automotive_design',2010,#21);
#21=APPLICATION_CONTEXT(
'core data for automotive mechanical design processes');
#22=SHAPE_REPRESENTATION('15305169_01AC-SEAL-None',(#278),#485);
#23=PRESENTATION_LAYER_ASSIGNMENT('101','Layer 101',(#32));
#24=STYLED_ITEM('',(#25),#32);
#25=PRESENTATION_STYLE_ASSIGNMENT((#26));
#26=SURFACE_STYLE_USAGE(.BOTH.,#27);
#27=SURFACE_SIDE_STYLE('',(#28));
#28=SURFACE_STYLE_FILL_AREA(#29);
#29=FILL_AREA_STYLE('',(#30));
#30=FILL_AREA_STYLE_COLOUR('',#31);
#31=COLOUR_RGB('ORANGE',1.,0.499992370489052,0.);
#32=MANIFOLD_SOLID_BREP('',#33);
#33=CLOSED_SHELL('',(#55,#56,#57,#58,#59,#60,#61,#62,#63,#64,#65,#66,#67,
#68,#69,#70,#71,#72,#73,#74,#75,#76,#77));
#34=TOROIDAL_SURFACE('',#292,1.15,0.4);
#35=TOROIDAL_SURFACE('',#296,1.525,0.425);
#36=TOROIDAL_SURFACE('',#300,1.54,0.19);
#37=TOROIDAL_SURFACE('',#304,1.54,0.19);
#38=TOROIDAL_SURFACE('',#308,1.525,0.425000000000001);
#39=TOROIDAL_SURFACE('',#312,1.54,0.19);
#40=TOROIDAL_SURFACE('',#316,1.54,0.19);
#41=TOROIDAL_SURFACE('',#320,1.525,0.425000000000001);
#42=TOROIDAL_SURFACE('',#323,1.15,0.4);
#43=PLANE('',#284);
#44=PLANE('',#286);
#45=PLANE('',#294);
#46=PLANE('',#322);
#47=FACE_OUTER_BOUND('',#128,.T.);
#48=FACE_OUTER_BOUND('',#129,.T.);
#49=CONICAL_SURFACE('',#283,0.75,30.);
#50=CONICAL_SURFACE('',#288,0.461324865405188,30.);
#51=CONICAL_SURFACE('',#298,1.56204119066775,85.0000000000025);
#52=CONICAL_SURFACE('',#306,1.56204119066775,84.9999999999985);
#53=CONICAL_SURFACE('',#310,1.56204119066776,85.0000000000016);
#54=CONICAL_SURFACE('',#318,1.56204119066775,84.9999999999999);
#55=ADVANCED_FACE('',(#82,#83),#78,.T.);
#56=ADVANCED_FACE('',(#84,#85),#49,.T.);
#57=ADVANCED_FACE('',(#47),#43,.T.);
#58=ADVANCED_FACE('',(#48),#44,.T.);
#59=ADVANCED_FACE('',(#86,#87),#50,.T.);
#60=ADVANCED_FACE('',(#88,#89),#79,.T.);
#61=ADVANCED_FACE('',(#90,#91),#34,.F.);
#62=ADVANCED_FACE('',(#92,#93),#45,.T.);
#63=ADVANCED_FACE('',(#94,#95),#35,.T.);
#64=ADVANCED_FACE('',(#96,#97),#51,.T.);
#65=ADVANCED_FACE('',(#98,#99),#36,.F.);
#66=ADVANCED_FACE('',(#100,#101),#80,.T.);
#67=ADVANCED_FACE('',(#102,#103),#37,.F.);
#68=ADVANCED_FACE('',(#104,#105),#52,.T.);
#69=ADVANCED_FACE('',(#106,#107),#38,.T.);
#70=ADVANCED_FACE('',(#108,#109),#53,.T.);
#71=ADVANCED_FACE('',(#110,#111),#39,.F.);
#72=ADVANCED_FACE('',(#112,#113),#81,.T.);
#73=ADVANCED_FACE('',(#114,#115),#40,.F.);
#74=ADVANCED_FACE('',(#116,#117),#54,.T.);
#75=ADVANCED_FACE('',(#118,#119),#41,.T.);
#76=ADVANCED_FACE('',(#120,#121),#46,.T.);
#77=ADVANCED_FACE('',(#122,#123),#42,.F.);
#78=CYLINDRICAL_SURFACE('',#281,0.75);
#79=CYLINDRICAL_SURFACE('',#290,0.75);
#80=CYLINDRICAL_SURFACE('',#302,1.35);
#81=CYLINDRICAL_SURFACE('',#314,1.35);
#82=FACE_BOUND('',#124,.T.);
#83=FACE_BOUND('',#125,.T.);
#84=FACE_BOUND('',#126,.T.);
#85=FACE_BOUND('',#127,.T.);
#86=FACE_BOUND('',#130,.T.);
#87=FACE_BOUND('',#131,.T.);
#88=FACE_BOUND('',#132,.T.);
#89=FACE_BOUND('',#133,.T.);
#90=FACE_BOUND('',#134,.T.);
#91=FACE_BOUND('',#135,.T.);
#92=FACE_BOUND('',#136,.T.);
#93=FACE_BOUND('',#137,.T.);
#94=FACE_BOUND('',#138,.T.);
#95=FACE_BOUND('',#139,.T.);
#96=FACE_BOUND('',#140,.T.);
#97=FACE_BOUND('',#141,.T.);
#98=FACE_BOUND('',#142,.T.);
#99=FACE_BOUND('',#143,.T.);
#100=FACE_BOUND('',#144,.T.);
#101=FACE_BOUND('',#145,.T.);
#102=FACE_BOUND('',#146,.T.);
#103=FACE_BOUND('',#147,.T.);
#104=FACE_BOUND('',#148,.T.);
#105=FACE_BOUND('',#149,.T.);
#106=FACE_BOUND('',#150,.T.);
#107=FACE_BOUND('',#151,.T.);
#108=FACE_BOUND('',#152,.T.);
#109=FACE_BOUND('',#153,.T.);
#110=FACE_BOUND('',#154,.T.);
#111=FACE_BOUND('',#155,.T.);
#112=FACE_BOUND('',#156,.T.);
#113=FACE_BOUND('',#157,.T.);
#114=FACE_BOUND('',#158,.T.);
#115=FACE_BOUND('',#159,.T.);
#116=FACE_BOUND('',#160,.T.);
#117=FACE_BOUND('',#161,.T.);
#118=FACE_BOUND('',#162,.T.);
#119=FACE_BOUND('',#163,.T.);
#120=FACE_BOUND('',#164,.T.);
#121=FACE_BOUND('',#165,.T.);
#122=FACE_BOUND('',#166,.T.);
#123=FACE_BOUND('',#167,.T.);
#124=EDGE_LOOP('',(#168));
#125=EDGE_LOOP('',(#169));
#126=EDGE_LOOP('',(#170));
#127=EDGE_LOOP('',(#171));
#128=EDGE_LOOP('',(#172));
#129=EDGE_LOOP('',(#173));
#130=EDGE_LOOP('',(#174));
#131=EDGE_LOOP('',(#175));
#132=EDGE_LOOP('',(#176));
#133=EDGE_LOOP('',(#177));
#134=EDGE_LOOP('',(#178));
#135=EDGE_LOOP('',(#179));
#136=EDGE_LOOP('',(#180));
#137=EDGE_LOOP('',(#181));
#138=EDGE_LOOP('',(#182));
#139=EDGE_LOOP('',(#183));
#140=EDGE_LOOP('',(#184));
#141=EDGE_LOOP('',(#185));
#142=EDGE_LOOP('',(#186));
#143=EDGE_LOOP('',(#187));
#144=EDGE_LOOP('',(#188));
#145=EDGE_LOOP('',(#189));
#146=EDGE_LOOP('',(#190));
#147=EDGE_LOOP('',(#191));
#148=EDGE_LOOP('',(#192));
#149=EDGE_LOOP('',(#193));
#150=EDGE_LOOP('',(#194));
#151=EDGE_LOOP('',(#195));
#152=EDGE_LOOP('',(#196));
#153=EDGE_LOOP('',(#197));
#154=EDGE_LOOP('',(#198));
#155=EDGE_LOOP('',(#199));
#156=EDGE_LOOP('',(#200));
#157=EDGE_LOOP('',(#201));
#158=EDGE_LOOP('',(#202));
#159=EDGE_LOOP('',(#203));
#160=EDGE_LOOP('',(#204));
#161=EDGE_LOOP('',(#205));
#162=EDGE_LOOP('',(#206));
#163=EDGE_LOOP('',(#207));
#164=EDGE_LOOP('',(#208));
#165=EDGE_LOOP('',(#209));
#166=EDGE_LOOP('',(#210));
#167=EDGE_LOOP('',(#211));
#168=ORIENTED_EDGE('',*,*,#234,.T.);
#169=ORIENTED_EDGE('',*,*,#235,.F.);
#170=ORIENTED_EDGE('',*,*,#236,.T.);
#171=ORIENTED_EDGE('',*,*,#234,.F.);
#172=ORIENTED_EDGE('',*,*,#236,.F.);
#173=ORIENTED_EDGE('',*,*,#237,.T.);
#174=ORIENTED_EDGE('',*,*,#238,.T.);
#175=ORIENTED_EDGE('',*,*,#237,.F.);
#176=ORIENTED_EDGE('',*,*,#239,.T.);
#177=ORIENTED_EDGE('',*,*,#238,.F.);
#178=ORIENTED_EDGE('',*,*,#239,.F.);
#179=ORIENTED_EDGE('',*,*,#240,.T.);
#180=ORIENTED_EDGE('',*,*,#241,.T.);
#181=ORIENTED_EDGE('',*,*,#240,.F.);
#182=ORIENTED_EDGE('',*,*,#242,.T.);
#183=ORIENTED_EDGE('',*,*,#241,.F.);
#184=ORIENTED_EDGE('',*,*,#243,.T.);
#185=ORIENTED_EDGE('',*,*,#242,.F.);
#186=ORIENTED_EDGE('',*,*,#243,.F.);
#187=ORIENTED_EDGE('',*,*,#244,.T.);
#188=ORIENTED_EDGE('',*,*,#245,.T.);
#189=ORIENTED_EDGE('',*,*,#244,.F.);
#190=ORIENTED_EDGE('',*,*,#245,.F.);
#191=ORIENTED_EDGE('',*,*,#246,.T.);
#192=ORIENTED_EDGE('',*,*,#246,.F.);
#193=ORIENTED_EDGE('',*,*,#247,.T.);
#194=ORIENTED_EDGE('',*,*,#248,.T.);
#195=ORIENTED_EDGE('',*,*,#247,.F.);
#196=ORIENTED_EDGE('',*,*,#249,.T.);
#197=ORIENTED_EDGE('',*,*,#248,.F.);
#198=ORIENTED_EDGE('',*,*,#249,.F.);
#199=ORIENTED_EDGE('',*,*,#250,.T.);
#200=ORIENTED_EDGE('',*,*,#251,.T.);
#201=ORIENTED_EDGE('',*,*,#250,.F.);
#202=ORIENTED_EDGE('',*,*,#251,.F.);
#203=ORIENTED_EDGE('',*,*,#252,.T.);
#204=ORIENTED_EDGE('',*,*,#252,.F.);
#205=ORIENTED_EDGE('',*,*,#253,.T.);
#206=ORIENTED_EDGE('',*,*,#254,.T.);
#207=ORIENTED_EDGE('',*,*,#253,.F.);
#208=ORIENTED_EDGE('',*,*,#255,.T.);
#209=ORIENTED_EDGE('',*,*,#254,.F.);
#210=ORIENTED_EDGE('',*,*,#255,.F.);
#211=ORIENTED_EDGE('',*,*,#235,.T.);
#212=VERTEX_POINT('',#418);
#213=VERTEX_POINT('',#420);
#214=VERTEX_POINT('',#423);
#215=VERTEX_POINT('',#427);
#216=VERTEX_POINT('',#430);
#217=VERTEX_POINT('',#433);
#218=VERTEX_POINT('',#436);
#219=VERTEX_POINT('',#439);
#220=VERTEX_POINT('',#442);
#221=VERTEX_POINT('',#445);
#222=VERTEX_POINT('',#448);
#223=VERTEX_POINT('',#451);
#224=VERTEX_POINT('',#454);
#225=VERTEX_POINT('',#457);
#226=VERTEX_POINT('',#460);
#227=VERTEX_POINT('',#463);
#228=VERTEX_POINT('',#466);
#229=VERTEX_POINT('',#469);
#230=VERTEX_POINT('',#472);
#231=VERTEX_POINT('',#475);
#232=VERTEX_POINT('',#478);
#233=VERTEX_POINT('',#481);
#234=EDGE_CURVE('',#212,#212,#256,.T.);
#235=EDGE_CURVE('',#213,#213,#257,.T.);
#236=EDGE_CURVE('',#214,#214,#258,.T.);
#237=EDGE_CURVE('',#215,#215,#259,.T.);
#238=EDGE_CURVE('',#216,#216,#260,.T.);
#239=EDGE_CURVE('',#217,#217,#261,.T.);
#240=EDGE_CURVE('',#218,#218,#262,.T.);
#241=EDGE_CURVE('',#219,#219,#263,.T.);
#242=EDGE_CURVE('',#220,#220,#264,.T.);
#243=EDGE_CURVE('',#221,#221,#265,.T.);
#244=EDGE_CURVE('',#222,#222,#266,.T.);
#245=EDGE_CURVE('',#223,#223,#267,.T.);
#246=EDGE_CURVE('',#224,#224,#268,.T.);
#247=EDGE_CURVE('',#225,#225,#269,.T.);
#248=EDGE_CURVE('',#226,#226,#270,.T.);
#249=EDGE_CURVE('',#227,#227,#271,.T.);
#250=EDGE_CURVE('',#228,#228,#272,.T.);
#251=EDGE_CURVE('',#229,#229,#273,.T.);
#252=EDGE_CURVE('',#230,#230,#274,.T.);
#253=EDGE_CURVE('',#231,#231,#275,.T.);
#254=EDGE_CURVE('',#232,#232,#276,.T.);
#255=EDGE_CURVE('',#233,#233,#277,.T.);
#256=CIRCLE('',#279,0.75);
#257=CIRCLE('',#280,0.75);
#258=CIRCLE('',#282,0.461324865405187);
#259=CIRCLE('',#285,0.461324865405188);
#260=CIRCLE('',#287,0.749999999999999);
#261=CIRCLE('',#289,0.75);
#262=CIRCLE('',#291,1.15);
#263=CIRCLE('',#293,1.52499999999882);
#264=CIRCLE('',#295,1.56204119066775);
#265=CIRCLE('',#297,1.52344040887795);
#266=CIRCLE('',#299,1.35);
#267=CIRCLE('',#301,1.35);
#268=CIRCLE('',#303,1.52344040887795);
#269=CIRCLE('',#305,1.56204119066775);
#270=CIRCLE('',#307,1.56204119066776);
#271=CIRCLE('',#309,1.52344040887795);
#272=CIRCLE('',#311,1.35);
#273=CIRCLE('',#313,1.35);
#274=CIRCLE('',#315,1.52344040887795);
#275=CIRCLE('',#317,1.56204119066775);
#276=CIRCLE('',#319,1.525);
#277=CIRCLE('',#321,1.15);
#278=AXIS2_PLACEMENT_3D('',#416,#324,#325);
#279=AXIS2_PLACEMENT_3D('',#417,#326,#327);
#280=AXIS2_PLACEMENT_3D('',#419,#328,#329);
#281=AXIS2_PLACEMENT_3D('',#421,#330,#331);
#282=AXIS2_PLACEMENT_3D('',#422,#332,#333);
#283=AXIS2_PLACEMENT_3D('',#424,#334,#335);
#284=AXIS2_PLACEMENT_3D('',#425,#336,#337);
#285=AXIS2_PLACEMENT_3D('',#426,#338,#339);
#286=AXIS2_PLACEMENT_3D('',#428,#340,#341);
#287=AXIS2_PLACEMENT_3D('',#429,#342,#343);
#288=AXIS2_PLACEMENT_3D('',#431,#344,#345);
#289=AXIS2_PLACEMENT_3D('',#432,#346,#347);
#290=AXIS2_PLACEMENT_3D('',#434,#348,#349);
#291=AXIS2_PLACEMENT_3D('',#435,#350,#351);
#292=AXIS2_PLACEMENT_3D('',#437,#352,#353);
#293=AXIS2_PLACEMENT_3D('',#438,#354,#355);
#294=AXIS2_PLACEMENT_3D('',#440,#356,#357);
#295=AXIS2_PLACEMENT_3D('',#441,#358,#359);
#296=AXIS2_PLACEMENT_3D('',#443,#360,#361);
#297=AXIS2_PLACEMENT_3D('',#444,#362,#363);
#298=AXIS2_PLACEMENT_3D('',#446,#364,#365);
#299=AXIS2_PLACEMENT_3D('',#447,#366,#367);
#300=AXIS2_PLACEMENT_3D('',#449,#368,#369);
#301=AXIS2_PLACEMENT_3D('',#450,#370,#371);
#302=AXIS2_PLACEMENT_3D('',#452,#372,#373);
#303=AXIS2_PLACEMENT_3D('',#453,#374,#375);
#304=AXIS2_PLACEMENT_3D('',#455,#376,#377);
#305=AXIS2_PLACEMENT_3D('',#456,#378,#379);
#306=AXIS2_PLACEMENT_3D('',#458,#380,#381);
#307=AXIS2_PLACEMENT_3D('',#459,#382,#383);
#308=AXIS2_PLACEMENT_3D('',#461,#384,#385);
#309=AXIS2_PLACEMENT_3D('',#462,#386,#387);
#310=AXIS2_PLACEMENT_3D('',#464,#388,#389);
#311=AXIS2_PLACEMENT_3D('',#465,#390,#391);
#312=AXIS2_PLACEMENT_3D('',#467,#392,#393);
#313=AXIS2_PLACEMENT_3D('',#468,#394,#395);
#314=AXIS2_PLACEMENT_3D('',#470,#396,#397);
#315=AXIS2_PLACEMENT_3D('',#471,#398,#399);
#316=AXIS2_PLACEMENT_3D('',#473,#400,#401);
#317=AXIS2_PLACEMENT_3D('',#474,#402,#403);
#318=AXIS2_PLACEMENT_3D('',#476,#404,#405);
#319=AXIS2_PLACEMENT_3D('',#477,#406,#407);
#320=AXIS2_PLACEMENT_3D('',#479,#408,#409);
#321=AXIS2_PLACEMENT_3D('',#480,#410,#411);
#322=AXIS2_PLACEMENT_3D('',#482,#412,#413);
#323=AXIS2_PLACEMENT_3D('',#483,#414,#415);
#324=DIRECTION('',(0.,0.,1.));
#325=DIRECTION('',(1.,0.,0.));
#326=DIRECTION('',(0.,0.,1.));
#327=DIRECTION('',(1.,0.,0.));
#328=DIRECTION('',(0.,0.,1.));
#329=DIRECTION('',(1.,0.,0.));
#330=DIRECTION('',(0.,0.,1.));
#331=DIRECTION('',(1.,0.,0.));
#332=DIRECTION('',(0.,0.,1.));
#333=DIRECTION('',(1.,0.,0.));
#334=DIRECTION('',(0.,0.,1.));
#335=DIRECTION('',(1.,0.,-9.60233962683892E-17));
#336=DIRECTION('',(0.,0.,-1.));
#337=DIRECTION('',(-1.,0.,0.));
#338=DIRECTION('',(0.,0.,1.));
#339=DIRECTION('',(1.,0.,0.));
#340=DIRECTION('',(0.,0.,1.));
#341=DIRECTION('',(1.,0.,0.));
#342=DIRECTION('',(0.,0.,1.));
#343=DIRECTION('',(1.,0.,0.));
#344=DIRECTION('',(0.,0.,-1.));
#345=DIRECTION('',(-1.,0.,1.80133818063705E-17));
#346=DIRECTION('',(0.,0.,1.));
#347=DIRECTION('',(1.,0.,0.));
#348=DIRECTION('',(0.,0.,1.));
#349=DIRECTION('',(1.,0.,0.));
#350=DIRECTION('',(0.,0.,1.));
#351=DIRECTION('',(1.,0.,0.));
#352=DIRECTION('',(0.,0.,1.));
#353=DIRECTION('',(1.,0.,0.));
#354=DIRECTION('',(0.,0.,1.));
#355=DIRECTION('',(1.,0.,0.));
#356=DIRECTION('',(0.,0.,1.));
#357=DIRECTION('',(1.,0.,0.));
#358=DIRECTION('',(0.,0.,1.));
#359=DIRECTION('',(1.,0.,0.));
#360=DIRECTION('',(0.,0.,1.));
#361=DIRECTION('',(1.,0.,0.));
#362=DIRECTION('',(0.,0.,1.));
#363=DIRECTION('',(1.,0.,0.));
#364=DIRECTION('',(0.,0.,1.));
#365=DIRECTION('',(1.,0.,2.57971430843386E-18));
#366=DIRECTION('',(0.,0.,1.));
#367=DIRECTION('',(1.,0.,0.));
#368=DIRECTION('',(0.,0.,1.));
#369=DIRECTION('',(1.,0.,0.));
#370=DIRECTION('',(0.,0.,1.));
#371=DIRECTION('',(1.,0.,0.));
#372=DIRECTION('',(0.,0.,1.));
#373=DIRECTION('',(1.,0.,0.));
#374=DIRECTION('',(0.,0.,1.));
#375=DIRECTION('',(1.,0.,0.));
#376=DIRECTION('',(0.,0.,1.));
#377=DIRECTION('',(1.,0.,0.));
#378=DIRECTION('',(0.,0.,1.));
#379=DIRECTION('',(1.,0.,0.));
#380=DIRECTION('',(0.,0.,-1.));
#381=DIRECTION('',(-1.,0.,-2.35209245769163E-18));
#382=DIRECTION('',(0.,0.,1.));
#383=DIRECTION('',(1.,0.,0.));
#384=DIRECTION('',(0.,0.,1.));
#385=DIRECTION('',(1.,0.,0.));
#386=DIRECTION('',(0.,0.,1.));
#387=DIRECTION('',(1.,0.,0.));
#388=DIRECTION('',(0.,0.,1.));
#389=DIRECTION('',(1.,0.,-6.37341182083772E-18));
#390=DIRECTION('',(0.,0.,1.));
#391=DIRECTION('',(1.,0.,0.));
#392=DIRECTION('',(0.,0.,1.));
#393=DIRECTION('',(1.,0.,0.));
#394=DIRECTION('',(0.,0.,1.));
#395=DIRECTION('',(1.,0.,0.));
#396=DIRECTION('',(0.,0.,1.));
#397=DIRECTION('',(1.,0.,0.));
#398=DIRECTION('',(0.,0.,1.));
#399=DIRECTION('',(1.,0.,0.));
#400=DIRECTION('',(0.,0.,1.));
#401=DIRECTION('',(1.,0.,0.));
#402=DIRECTION('',(0.,0.,1.));
#403=DIRECTION('',(1.,0.,0.));
#404=DIRECTION('',(0.,0.,-1.));
#405=DIRECTION('',(-1.,0.,-1.66922690545808E-18));
#406=DIRECTION('',(0.,0.,1.));
#407=DIRECTION('',(1.,0.,0.));
#408=DIRECTION('',(0.,0.,1.));
#409=DIRECTION('',(1.,0.,0.));
#410=DIRECTION('',(0.,0.,1.));
#411=DIRECTION('',(1.,0.,0.));
#412=DIRECTION('',(0.,0.,-1.));
#413=DIRECTION('',(-1.,0.,0.));
#414=DIRECTION('',(0.,0.,1.));
#415=DIRECTION('',(1.,0.,0.));
#416=CARTESIAN_POINT('',(0.,0.,0.));
#417=CARTESIAN_POINT('',(0.,0.,0.5));
#418=CARTESIAN_POINT('',(0.75,0.,0.5));
#419=CARTESIAN_POINT('',(0.,0.,3.6));
#420=CARTESIAN_POINT('',(0.75,0.,3.6));
#421=CARTESIAN_POINT('',(0.,0.,12.));
#422=CARTESIAN_POINT('',(0.,0.,0.));
#423=CARTESIAN_POINT('',(0.461324865405187,0.,0.));
#424=CARTESIAN_POINT('',(0.,0.,0.5));
#425=CARTESIAN_POINT('',(0.,-0.461324865405187,0.));
#426=CARTESIAN_POINT('',(0.,0.,12.));
#427=CARTESIAN_POINT('',(0.461324865405188,0.,12.));
#428=CARTESIAN_POINT('',(0.,0.,12.));
#429=CARTESIAN_POINT('',(0.,0.,11.5));
#430=CARTESIAN_POINT('',(0.749999999999999,0.,11.5));
#431=CARTESIAN_POINT('',(0.,0.,12.));
#432=CARTESIAN_POINT('',(0.,0.,8.4));
#433=CARTESIAN_POINT('',(0.75,0.,8.4));
#434=CARTESIAN_POINT('',(0.,0.,12.));
#435=CARTESIAN_POINT('',(0.,0.,8.));
#436=CARTESIAN_POINT('',(1.15,0.,8.));
#437=CARTESIAN_POINT('',(0.,0.,8.4));
#438=CARTESIAN_POINT('',(0.,0.,8.));
#439=CARTESIAN_POINT('',(1.52499999999882,0.,8.));
#440=CARTESIAN_POINT('',(0.,-1.15,8.));
#441=CARTESIAN_POINT('',(0.,0.,7.15161725331101));
#442=CARTESIAN_POINT('',(1.56204119066775,0.,7.15161725331101));
#443=CARTESIAN_POINT('',(0.,0.,7.575));
#444=CARTESIAN_POINT('',(0.,0.,7.14824012250116));
#445=CARTESIAN_POINT('',(1.52344040887795,0.,7.14824012250116));
#446=CARTESIAN_POINT('',(0.,0.,7.15161725331101));
#447=CARTESIAN_POINT('',(0.,0.,6.95896312986373));
#448=CARTESIAN_POINT('',(1.35,0.,6.95896312986373));
#449=CARTESIAN_POINT('',(0.,0.,6.95896312986373));
#450=CARTESIAN_POINT('',(0.,0.,6.61603687013627));
#451=CARTESIAN_POINT('',(1.35,0.,6.61603687013627));
#452=CARTESIAN_POINT('',(0.,0.,12.));
#453=CARTESIAN_POINT('',(0.,0.,6.42675987749884));
#454=CARTESIAN_POINT('',(1.52344040887795,0.,6.42675987749884));
#455=CARTESIAN_POINT('',(0.,0.,6.61603687013627));
#456=CARTESIAN_POINT('',(0.,0.,6.42338274668899));
#457=CARTESIAN_POINT('',(1.56204119066775,0.,6.42338274668899));
#458=CARTESIAN_POINT('',(0.,0.,6.42338274668899));
#459=CARTESIAN_POINT('',(0.,0.,5.57661725331101));
#460=CARTESIAN_POINT('',(1.56204119066776,0.,5.57661725331101));
#461=CARTESIAN_POINT('',(0.,0.,6.));
#462=CARTESIAN_POINT('',(0.,0.,5.57324012250116));
#463=CARTESIAN_POINT('',(1.52344040887795,0.,5.57324012250116));
#464=CARTESIAN_POINT('',(0.,0.,5.57661725331101));
#465=CARTESIAN_POINT('',(0.,0.,5.38396312986373));
#466=CARTESIAN_POINT('',(1.35,0.,5.38396312986373));
#467=CARTESIAN_POINT('',(0.,0.,5.38396312986373));
#468=CARTESIAN_POINT('',(0.,0.,5.04103687013627));
#469=CARTESIAN_POINT('',(1.35,0.,5.04103687013627));
#470=CARTESIAN_POINT('',(0.,0.,12.));
#471=CARTESIAN_POINT('',(0.,0.,4.85175987749884));
#472=CARTESIAN_POINT('',(1.52344040887795,0.,4.85175987749884));
#473=CARTESIAN_POINT('',(0.,0.,5.04103687013627));
#474=CARTESIAN_POINT('',(0.,0.,4.84838274668899));
#475=CARTESIAN_POINT('',(1.56204119066775,0.,4.84838274668899));
#476=CARTESIAN_POINT('',(0.,0.,4.84838274668899));
#477=CARTESIAN_POINT('',(0.,0.,4.));
#478=CARTESIAN_POINT('',(1.525,0.,4.));
#479=CARTESIAN_POINT('',(0.,0.,4.425));
#480=CARTESIAN_POINT('',(0.,0.,4.));
#481=CARTESIAN_POINT('',(1.15,0.,4.));
#482=CARTESIAN_POINT('',(0.,-1.52499999999999,4.));
#483=CARTESIAN_POINT('',(0.,0.,3.6));
#484=MECHANICAL_DESIGN_GEOMETRIC_PRESENTATION_REPRESENTATION('',(#24),#485);
#485=(
GEOMETRIC_REPRESENTATION_CONTEXT(3)
GLOBAL_UNCERTAINTY_ASSIGNED_CONTEXT((#486))
GLOBAL_UNIT_ASSIGNED_CONTEXT((#492,#488,#487))
REPRESENTATION_CONTEXT('15305169','TOP_LEVEL_ASSEMBLY_PART')
);
#486=UNCERTAINTY_MEASURE_WITH_UNIT(LENGTH_MEASURE(2.E-5),#492,
'DISTANCE_ACCURACY_VALUE','Maximum Tolerance applied to model');
#487=(
NAMED_UNIT(*)
SI_UNIT($,.STERADIAN.)
SOLID_ANGLE_UNIT()
);
#488=(
CONVERSION_BASED_UNIT('DEGREE',#490)
NAMED_UNIT(#489)
PLANE_ANGLE_UNIT()
);
#489=DIMENSIONAL_EXPONENTS(0.,0.,0.,0.,0.,0.,0.);
#490=PLANE_ANGLE_MEASURE_WITH_UNIT(PLANE_ANGLE_MEASURE(0.0174532925),#491);
#491=(
NAMED_UNIT(*)
PLANE_ANGLE_UNIT()
SI_UNIT($,.RADIAN.)
);
#492=(
LENGTH_UNIT()
NAMED_UNIT(*)
SI_UNIT(.MILLI.,.METRE.)
);
ENDSEC;
END-ISO-10303-21;
