ISO-10303-21;
HEADER;
/* Generated by software containing ST-Developer
 * from STEP Tools, Inc. (www.steptools.com) 
 */
/* OPTION: using custom schema-name function */

FILE_DESCRIPTION(
/* description */ (''),
/* implementation_level */ '2;1');

FILE_NAME(
/* name */ '15324987.stp',
/* time_stamp */ '2020-05-11T15:52:08+08:00',
/* author */ (''),
/* organization */ (''),
/* preprocessor_version */ 'ST-DEVELOPER v16',
/* originating_system */ 'SIEMENS PLM Software NX 11.0',
/* authorisation */ '');

FILE_SCHEMA (('AUTOMOTIVE_DESIGN { 1 0 10303 214 3 1 1 1 }'));
ENDSEC;

DATA;
#10=SHAPE_REPRESENTATION_RELATIONSHIP('None',
'relationship between 15324987_01AE-SEAL-None and 15324987_01AE-SEAL-N
one',#22,#11);
#11=ADVANCED_BREP_SHAPE_REPRESENTATION('15324987_01AE-SEAL-None',(#32),
#619);
#12=SHAPE_DEFINITION_REPRESENTATION(#13,#22);
#13=PRODUCT_DEFINITION_SHAPE('','',#14);
#14=PRODUCT_DEFINITION(' ','',#16,#15);
#15=PRODUCT_DEFINITION_CONTEXT('part definition',#21,'design');
#16=PRODUCT_DEFINITION_FORMATION_WITH_SPECIFIED_SOURCE(' ',' ',#18,
 .NOT_KNOWN.);
#17=PRODUCT_RELATED_PRODUCT_CATEGORY('part','',(#18));
#18=PRODUCT('15324987_01AE-SEAL','15324987_01AE-SEAL',' ',(#19));
#19=PRODUCT_CONTEXT(' ',#21,'mechanical');
#20=APPLICATION_PROTOCOL_DEFINITION('international standard',
'automotive_design',2010,#21);
#21=APPLICATION_CONTEXT(
'core data for automotive mechanical design processes');
#22=SHAPE_REPRESENTATION('15324987_01AE-SEAL-None',(#353),#619);
#23=PRESENTATION_LAYER_ASSIGNMENT('101','Layer 101',(#32));
#24=STYLED_ITEM('',(#25),#32);
#25=PRESENTATION_STYLE_ASSIGNMENT((#26));
#26=SURFACE_STYLE_USAGE(.BOTH.,#27);
#27=SURFACE_SIDE_STYLE('',(#28));
#28=SURFACE_STYLE_FILL_AREA(#29);
#29=FILL_AREA_STYLE('',(#30));
#30=FILL_AREA_STYLE_COLOUR('',#31);
#31=COLOUR_RGB('Orange',1.,0.499992370489052,0.);
#32=MANIFOLD_SOLID_BREP('',#33);
#33=CLOSED_SHELL('',(#58,#59,#60,#61,#62,#63,#64,#65,#66,#67,#68,#69,#70,
#71,#72,#73,#74,#75,#76,#77,#78,#79,#80,#81,#82,#83,#84,#85,#86));
#34=CONICAL_SURFACE('',#366,4.45,85.);
#35=CONICAL_SURFACE('',#370,4.20550450996168,84.9999999999999);
#36=CONICAL_SURFACE('',#376,4.45,85.0000000000001);
#37=CONICAL_SURFACE('',#380,4.20550450996168,84.9999999999999);
#38=CONICAL_SURFACE('',#390,1.91640990247225,30.);
#39=CONICAL_SURFACE('',#394,2.3317436626701,39.4229854305258);
#40=CONICAL_SURFACE('',#398,2.33174366267016,39.4229854305259);
#41=CONICAL_SURFACE('',#402,2.3317436626701,39.4229854305258);
#42=CONICAL_SURFACE('',#406,2.33174366267016,39.422985430526);
#43=PLANE('',#360);
#44=PLANE('',#386);
#45=PLANE('',#411);
#46=TOROIDAL_SURFACE('',#358,3.65,0.4);
#47=TOROIDAL_SURFACE('',#362,4.175,0.35);
#48=TOROIDAL_SURFACE('',#368,3.81095977547324,0.410959775473243);
#49=TOROIDAL_SURFACE('',#372,4.175,0.35);
#50=TOROIDAL_SURFACE('',#378,3.81095977547325,0.410959775473249);
#51=TOROIDAL_SURFACE('',#382,4.175,0.35);
#52=TOROIDAL_SURFACE('',#388,3.04102540378444,0.5);
#53=TOROIDAL_SURFACE('',#392,2.17621752360759,0.3);
#54=TOROIDAL_SURFACE('',#396,2.1,0.3);
#55=TOROIDAL_SURFACE('',#400,2.17795113919416,0.3);
#56=TOROIDAL_SURFACE('',#404,2.1,0.3);
#57=TOROIDAL_SURFACE('',#408,2.175,0.3);
#58=ADVANCED_FACE('',(#92,#93),#87,.T.);
#59=ADVANCED_FACE('',(#94,#95),#46,.F.);
#60=ADVANCED_FACE('',(#96,#97),#43,.F.);
#61=ADVANCED_FACE('',(#98,#99),#47,.T.);
#62=ADVANCED_FACE('',(#100,#101),#88,.T.);
#63=ADVANCED_FACE('',(#102,#103),#34,.T.);
#64=ADVANCED_FACE('',(#104,#105),#48,.F.);
#65=ADVANCED_FACE('',(#106,#107),#35,.T.);
#66=ADVANCED_FACE('',(#108,#109),#49,.T.);
#67=ADVANCED_FACE('',(#110,#111),#89,.T.);
#68=ADVANCED_FACE('',(#112,#113),#36,.T.);
#69=ADVANCED_FACE('',(#114,#115),#50,.F.);
#70=ADVANCED_FACE('',(#116,#117),#37,.T.);
#71=ADVANCED_FACE('',(#118,#119),#51,.T.);
#72=ADVANCED_FACE('',(#120,#121),#90,.T.);
#73=ADVANCED_FACE('',(#122,#123),#44,.T.);
#74=ADVANCED_FACE('',(#124,#125),#52,.T.);
#75=ADVANCED_FACE('',(#126,#127),#38,.F.);
#76=ADVANCED_FACE('',(#128,#129),#53,.T.);
#77=ADVANCED_FACE('',(#130,#131),#39,.F.);
#78=ADVANCED_FACE('',(#132,#133),#54,.F.);
#79=ADVANCED_FACE('',(#134,#135),#40,.F.);
#80=ADVANCED_FACE('',(#136,#137),#55,.T.);
#81=ADVANCED_FACE('',(#138,#139),#41,.F.);
#82=ADVANCED_FACE('',(#140,#141),#56,.F.);
#83=ADVANCED_FACE('',(#142,#143),#42,.F.);
#84=ADVANCED_FACE('',(#144,#145),#57,.T.);
#85=ADVANCED_FACE('',(#146,#147),#91,.F.);
#86=ADVANCED_FACE('',(#148,#149),#45,.T.);
#87=CYLINDRICAL_SURFACE('',#356,3.25);
#88=CYLINDRICAL_SURFACE('',#364,4.525);
#89=CYLINDRICAL_SURFACE('',#374,4.525);
#90=CYLINDRICAL_SURFACE('',#384,4.525);
#91=CYLINDRICAL_SURFACE('',#410,1.875);
#92=FACE_BOUND('',#150,.T.);
#93=FACE_BOUND('',#151,.T.);
#94=FACE_BOUND('',#152,.T.);
#95=FACE_BOUND('',#153,.T.);
#96=FACE_BOUND('',#154,.T.);
#97=FACE_BOUND('',#155,.T.);
#98=FACE_BOUND('',#156,.T.);
#99=FACE_BOUND('',#157,.T.);
#100=FACE_BOUND('',#158,.T.);
#101=FACE_BOUND('',#159,.T.);
#102=FACE_BOUND('',#160,.T.);
#103=FACE_BOUND('',#161,.T.);
#104=FACE_BOUND('',#162,.T.);
#105=FACE_BOUND('',#163,.T.);
#106=FACE_BOUND('',#164,.T.);
#107=FACE_BOUND('',#165,.T.);
#108=FACE_BOUND('',#166,.T.);
#109=FACE_BOUND('',#167,.T.);
#110=FACE_BOUND('',#168,.T.);
#111=FACE_BOUND('',#169,.T.);
#112=FACE_BOUND('',#170,.T.);
#113=FACE_BOUND('',#171,.T.);
#114=FACE_BOUND('',#172,.T.);
#115=FACE_BOUND('',#173,.T.);
#116=FACE_BOUND('',#174,.T.);
#117=FACE_BOUND('',#175,.T.);
#118=FACE_BOUND('',#176,.T.);
#119=FACE_BOUND('',#177,.T.);
#120=FACE_BOUND('',#178,.T.);
#121=FACE_BOUND('',#179,.T.);
#122=FACE_BOUND('',#180,.T.);
#123=FACE_BOUND('',#181,.T.);
#124=FACE_BOUND('',#182,.T.);
#125=FACE_BOUND('',#183,.T.);
#126=FACE_BOUND('',#184,.T.);
#127=FACE_BOUND('',#185,.T.);
#128=FACE_BOUND('',#186,.T.);
#129=FACE_BOUND('',#187,.T.);
#130=FACE_BOUND('',#188,.T.);
#131=FACE_BOUND('',#189,.T.);
#132=FACE_BOUND('',#190,.T.);
#133=FACE_BOUND('',#191,.T.);
#134=FACE_BOUND('',#192,.T.);
#135=FACE_BOUND('',#193,.T.);
#136=FACE_BOUND('',#194,.T.);
#137=FACE_BOUND('',#195,.T.);
#138=FACE_BOUND('',#196,.T.);
#139=FACE_BOUND('',#197,.T.);
#140=FACE_BOUND('',#198,.T.);
#141=FACE_BOUND('',#199,.T.);
#142=FACE_BOUND('',#200,.T.);
#143=FACE_BOUND('',#201,.T.);
#144=FACE_BOUND('',#202,.T.);
#145=FACE_BOUND('',#203,.T.);
#146=FACE_BOUND('',#204,.T.);
#147=FACE_BOUND('',#205,.T.);
#148=FACE_BOUND('',#206,.T.);
#149=FACE_BOUND('',#207,.T.);
#150=EDGE_LOOP('',(#208));
#151=EDGE_LOOP('',(#209));
#152=EDGE_LOOP('',(#210));
#153=EDGE_LOOP('',(#211));
#154=EDGE_LOOP('',(#212));
#155=EDGE_LOOP('',(#213));
#156=EDGE_LOOP('',(#214));
#157=EDGE_LOOP('',(#215));
#158=EDGE_LOOP('',(#216));
#159=EDGE_LOOP('',(#217));
#160=EDGE_LOOP('',(#218));
#161=EDGE_LOOP('',(#219));
#162=EDGE_LOOP('',(#220));
#163=EDGE_LOOP('',(#221));
#164=EDGE_LOOP('',(#222));
#165=EDGE_LOOP('',(#223));
#166=EDGE_LOOP('',(#224));
#167=EDGE_LOOP('',(#225));
#168=EDGE_LOOP('',(#226));
#169=EDGE_LOOP('',(#227));
#170=EDGE_LOOP('',(#228));
#171=EDGE_LOOP('',(#229));
#172=EDGE_LOOP('',(#230));
#173=EDGE_LOOP('',(#231));
#174=EDGE_LOOP('',(#232));
#175=EDGE_LOOP('',(#233));
#176=EDGE_LOOP('',(#234));
#177=EDGE_LOOP('',(#235));
#178=EDGE_LOOP('',(#236));
#179=EDGE_LOOP('',(#237));
#180=EDGE_LOOP('',(#238));
#181=EDGE_LOOP('',(#239));
#182=EDGE_LOOP('',(#240));
#183=EDGE_LOOP('',(#241));
#184=EDGE_LOOP('',(#242));
#185=EDGE_LOOP('',(#243));
#186=EDGE_LOOP('',(#244));
#187=EDGE_LOOP('',(#245));
#188=EDGE_LOOP('',(#246));
#189=EDGE_LOOP('',(#247));
#190=EDGE_LOOP('',(#248));
#191=EDGE_LOOP('',(#249));
#192=EDGE_LOOP('',(#250));
#193=EDGE_LOOP('',(#251));
#194=EDGE_LOOP('',(#252));
#195=EDGE_LOOP('',(#253));
#196=EDGE_LOOP('',(#254));
#197=EDGE_LOOP('',(#255));
#198=EDGE_LOOP('',(#256));
#199=EDGE_LOOP('',(#257));
#200=EDGE_LOOP('',(#258));
#201=EDGE_LOOP('',(#259));
#202=EDGE_LOOP('',(#260));
#203=EDGE_LOOP('',(#261));
#204=EDGE_LOOP('',(#262));
#205=EDGE_LOOP('',(#263));
#206=EDGE_LOOP('',(#264));
#207=EDGE_LOOP('',(#265));
#208=ORIENTED_EDGE('',*,*,#295,.F.);
#209=ORIENTED_EDGE('',*,*,#296,.T.);
#210=ORIENTED_EDGE('',*,*,#297,.F.);
#211=ORIENTED_EDGE('',*,*,#295,.T.);
#212=ORIENTED_EDGE('',*,*,#298,.F.);
#213=ORIENTED_EDGE('',*,*,#297,.T.);
#214=ORIENTED_EDGE('',*,*,#298,.T.);
#215=ORIENTED_EDGE('',*,*,#299,.F.);
#216=ORIENTED_EDGE('',*,*,#299,.T.);
#217=ORIENTED_EDGE('',*,*,#300,.T.);
#218=ORIENTED_EDGE('',*,*,#301,.F.);
#219=ORIENTED_EDGE('',*,*,#300,.F.);
#220=ORIENTED_EDGE('',*,*,#302,.F.);
#221=ORIENTED_EDGE('',*,*,#301,.T.);
#222=ORIENTED_EDGE('',*,*,#302,.T.);
#223=ORIENTED_EDGE('',*,*,#303,.F.);
#224=ORIENTED_EDGE('',*,*,#303,.T.);
#225=ORIENTED_EDGE('',*,*,#304,.F.);
#226=ORIENTED_EDGE('',*,*,#304,.T.);
#227=ORIENTED_EDGE('',*,*,#305,.T.);
#228=ORIENTED_EDGE('',*,*,#306,.F.);
#229=ORIENTED_EDGE('',*,*,#305,.F.);
#230=ORIENTED_EDGE('',*,*,#307,.F.);
#231=ORIENTED_EDGE('',*,*,#306,.T.);
#232=ORIENTED_EDGE('',*,*,#307,.T.);
#233=ORIENTED_EDGE('',*,*,#308,.F.);
#234=ORIENTED_EDGE('',*,*,#308,.T.);
#235=ORIENTED_EDGE('',*,*,#309,.F.);
#236=ORIENTED_EDGE('',*,*,#309,.T.);
#237=ORIENTED_EDGE('',*,*,#310,.F.);
#238=ORIENTED_EDGE('',*,*,#310,.T.);
#239=ORIENTED_EDGE('',*,*,#311,.F.);
#240=ORIENTED_EDGE('',*,*,#311,.T.);
#241=ORIENTED_EDGE('',*,*,#312,.F.);
#242=ORIENTED_EDGE('',*,*,#312,.T.);
#243=ORIENTED_EDGE('',*,*,#313,.F.);
#244=ORIENTED_EDGE('',*,*,#313,.T.);
#245=ORIENTED_EDGE('',*,*,#314,.F.);
#246=ORIENTED_EDGE('',*,*,#314,.T.);
#247=ORIENTED_EDGE('',*,*,#315,.F.);
#248=ORIENTED_EDGE('',*,*,#316,.F.);
#249=ORIENTED_EDGE('',*,*,#315,.T.);
#250=ORIENTED_EDGE('',*,*,#317,.F.);
#251=ORIENTED_EDGE('',*,*,#316,.T.);
#252=ORIENTED_EDGE('',*,*,#317,.T.);
#253=ORIENTED_EDGE('',*,*,#318,.F.);
#254=ORIENTED_EDGE('',*,*,#318,.T.);
#255=ORIENTED_EDGE('',*,*,#319,.F.);
#256=ORIENTED_EDGE('',*,*,#320,.F.);
#257=ORIENTED_EDGE('',*,*,#319,.T.);
#258=ORIENTED_EDGE('',*,*,#321,.F.);
#259=ORIENTED_EDGE('',*,*,#320,.T.);
#260=ORIENTED_EDGE('',*,*,#321,.T.);
#261=ORIENTED_EDGE('',*,*,#322,.F.);
#262=ORIENTED_EDGE('',*,*,#323,.F.);
#263=ORIENTED_EDGE('',*,*,#322,.T.);
#264=ORIENTED_EDGE('',*,*,#323,.T.);
#265=ORIENTED_EDGE('',*,*,#296,.F.);
#266=VERTEX_POINT('',#532);
#267=VERTEX_POINT('',#534);
#268=VERTEX_POINT('',#537);
#269=VERTEX_POINT('',#540);
#270=VERTEX_POINT('',#543);
#271=VERTEX_POINT('',#546);
#272=VERTEX_POINT('',#549);
#273=VERTEX_POINT('',#552);
#274=VERTEX_POINT('',#555);
#275=VERTEX_POINT('',#558);
#276=VERTEX_POINT('',#561);
#277=VERTEX_POINT('',#564);
#278=VERTEX_POINT('',#567);
#279=VERTEX_POINT('',#570);
#280=VERTEX_POINT('',#573);
#281=VERTEX_POINT('',#576);
#282=VERTEX_POINT('',#579);
#283=VERTEX_POINT('',#582);
#284=VERTEX_POINT('',#585);
#285=VERTEX_POINT('',#588);
#286=VERTEX_POINT('',#591);
#287=VERTEX_POINT('',#594);
#288=VERTEX_POINT('',#597);
#289=VERTEX_POINT('',#600);
#290=VERTEX_POINT('',#603);
#291=VERTEX_POINT('',#606);
#292=VERTEX_POINT('',#609);
#293=VERTEX_POINT('',#612);
#294=VERTEX_POINT('',#615);
#295=EDGE_CURVE('',#266,#266,#324,.T.);
#296=EDGE_CURVE('',#267,#267,#325,.T.);
#297=EDGE_CURVE('',#268,#268,#326,.T.);
#298=EDGE_CURVE('',#269,#269,#327,.T.);
#299=EDGE_CURVE('',#270,#270,#328,.T.);
#300=EDGE_CURVE('',#271,#271,#329,.T.);
#301=EDGE_CURVE('',#272,#272,#330,.T.);
#302=EDGE_CURVE('',#273,#273,#331,.T.);
#303=EDGE_CURVE('',#274,#274,#332,.T.);
#304=EDGE_CURVE('',#275,#275,#333,.T.);
#305=EDGE_CURVE('',#276,#276,#334,.T.);
#306=EDGE_CURVE('',#277,#277,#335,.T.);
#307=EDGE_CURVE('',#278,#278,#336,.T.);
#308=EDGE_CURVE('',#279,#279,#337,.T.);
#309=EDGE_CURVE('',#280,#280,#338,.T.);
#310=EDGE_CURVE('',#281,#281,#339,.T.);
#311=EDGE_CURVE('',#282,#282,#340,.T.);
#312=EDGE_CURVE('',#283,#283,#341,.T.);
#313=EDGE_CURVE('',#284,#284,#342,.T.);
#314=EDGE_CURVE('',#285,#285,#343,.T.);
#315=EDGE_CURVE('',#286,#286,#344,.T.);
#316=EDGE_CURVE('',#287,#287,#345,.T.);
#317=EDGE_CURVE('',#288,#288,#346,.T.);
#318=EDGE_CURVE('',#289,#289,#347,.T.);
#319=EDGE_CURVE('',#290,#290,#348,.T.);
#320=EDGE_CURVE('',#291,#291,#349,.T.);
#321=EDGE_CURVE('',#292,#292,#350,.T.);
#322=EDGE_CURVE('',#293,#293,#351,.T.);
#323=EDGE_CURVE('',#294,#294,#352,.T.);
#324=CIRCLE('',#354,3.25);
#325=CIRCLE('',#355,3.25);
#326=CIRCLE('',#357,3.65);
#327=CIRCLE('',#359,4.175);
#328=CIRCLE('',#361,4.525);
#329=CIRCLE('',#363,4.525);
#330=CIRCLE('',#365,3.77514227101028);
#331=CIRCLE('',#367,3.77514227101028);
#332=CIRCLE('',#369,4.20550450996168);
#333=CIRCLE('',#371,4.525);
#334=CIRCLE('',#373,4.525);
#335=CIRCLE('',#375,3.77514227100247);
#336=CIRCLE('',#377,3.77514227100247);
#337=CIRCLE('',#379,4.20550450996168);
#338=CIRCLE('',#381,4.525);
#339=CIRCLE('',#383,4.525);
#340=CIRCLE('',#385,3.04102540378444);
#341=CIRCLE('',#387,2.60801270189222);
#342=CIRCLE('',#389,1.91640990247225);
#343=CIRCLE('',#391,1.94447386093743);
#344=CIRCLE('',#393,2.3317436626701);
#345=CIRCLE('',#395,2.33174366267016);
#346=CIRCLE('',#397,1.946207476524);
#347=CIRCLE('',#399,1.946207476524);
#348=CIRCLE('',#401,2.3317436626701);
#349=CIRCLE('',#403,2.33174366267016);
#350=CIRCLE('',#405,1.94325633732921);
#351=CIRCLE('',#407,1.875);
#352=CIRCLE('',#409,1.875);
#353=AXIS2_PLACEMENT_3D('',#530,#412,#413);
#354=AXIS2_PLACEMENT_3D('',#531,#414,#415);
#355=AXIS2_PLACEMENT_3D('',#533,#416,#417);
#356=AXIS2_PLACEMENT_3D('',#535,#418,#419);
#357=AXIS2_PLACEMENT_3D('',#536,#420,#421);
#358=AXIS2_PLACEMENT_3D('',#538,#422,#423);
#359=AXIS2_PLACEMENT_3D('',#539,#424,#425);
#360=AXIS2_PLACEMENT_3D('',#541,#426,#427);
#361=AXIS2_PLACEMENT_3D('',#542,#428,#429);
#362=AXIS2_PLACEMENT_3D('',#544,#430,#431);
#363=AXIS2_PLACEMENT_3D('',#545,#432,#433);
#364=AXIS2_PLACEMENT_3D('',#547,#434,#435);
#365=AXIS2_PLACEMENT_3D('',#548,#436,#437);
#366=AXIS2_PLACEMENT_3D('',#550,#438,#439);
#367=AXIS2_PLACEMENT_3D('',#551,#440,#441);
#368=AXIS2_PLACEMENT_3D('',#553,#442,#443);
#369=AXIS2_PLACEMENT_3D('',#554,#444,#445);
#370=AXIS2_PLACEMENT_3D('',#556,#446,#447);
#371=AXIS2_PLACEMENT_3D('',#557,#448,#449);
#372=AXIS2_PLACEMENT_3D('',#559,#450,#451);
#373=AXIS2_PLACEMENT_3D('',#560,#452,#453);
#374=AXIS2_PLACEMENT_3D('',#562,#454,#455);
#375=AXIS2_PLACEMENT_3D('',#563,#456,#457);
#376=AXIS2_PLACEMENT_3D('',#565,#458,#459);
#377=AXIS2_PLACEMENT_3D('',#566,#460,#461);
#378=AXIS2_PLACEMENT_3D('',#568,#462,#463);
#379=AXIS2_PLACEMENT_3D('',#569,#464,#465);
#380=AXIS2_PLACEMENT_3D('',#571,#466,#467);
#381=AXIS2_PLACEMENT_3D('',#572,#468,#469);
#382=AXIS2_PLACEMENT_3D('',#574,#470,#471);
#383=AXIS2_PLACEMENT_3D('',#575,#472,#473);
#384=AXIS2_PLACEMENT_3D('',#577,#474,#475);
#385=AXIS2_PLACEMENT_3D('',#578,#476,#477);
#386=AXIS2_PLACEMENT_3D('',#580,#478,#479);
#387=AXIS2_PLACEMENT_3D('',#581,#480,#481);
#388=AXIS2_PLACEMENT_3D('',#583,#482,#483);
#389=AXIS2_PLACEMENT_3D('',#584,#484,#485);
#390=AXIS2_PLACEMENT_3D('',#586,#486,#487);
#391=AXIS2_PLACEMENT_3D('',#587,#488,#489);
#392=AXIS2_PLACEMENT_3D('',#589,#490,#491);
#393=AXIS2_PLACEMENT_3D('',#590,#492,#493);
#394=AXIS2_PLACEMENT_3D('',#592,#494,#495);
#395=AXIS2_PLACEMENT_3D('',#593,#496,#497);
#396=AXIS2_PLACEMENT_3D('',#595,#498,#499);
#397=AXIS2_PLACEMENT_3D('',#596,#500,#501);
#398=AXIS2_PLACEMENT_3D('',#598,#502,#503);
#399=AXIS2_PLACEMENT_3D('',#599,#504,#505);
#400=AXIS2_PLACEMENT_3D('',#601,#506,#507);
#401=AXIS2_PLACEMENT_3D('',#602,#508,#509);
#402=AXIS2_PLACEMENT_3D('',#604,#510,#511);
#403=AXIS2_PLACEMENT_3D('',#605,#512,#513);
#404=AXIS2_PLACEMENT_3D('',#607,#514,#515);
#405=AXIS2_PLACEMENT_3D('',#608,#516,#517);
#406=AXIS2_PLACEMENT_3D('',#610,#518,#519);
#407=AXIS2_PLACEMENT_3D('',#611,#520,#521);
#408=AXIS2_PLACEMENT_3D('',#613,#522,#523);
#409=AXIS2_PLACEMENT_3D('',#614,#524,#525);
#410=AXIS2_PLACEMENT_3D('',#616,#526,#527);
#411=AXIS2_PLACEMENT_3D('',#617,#528,#529);
#412=DIRECTION('',(0.,0.,1.));
#413=DIRECTION('',(1.,0.,0.));
#414=DIRECTION('',(1.17145536426183E-15,1.,0.));
#415=DIRECTION('',(-1.,1.20096240644548E-15,0.));
#416=DIRECTION('',(1.17145536426183E-15,1.,0.));
#417=DIRECTION('',(-1.,1.17145536426183E-15,0.));
#418=DIRECTION('',(1.17145536426183E-15,1.,0.));
#419=DIRECTION('',(-1.,1.17145536426183E-15,0.));
#420=DIRECTION('',(1.17145536426183E-15,1.,0.));
#421=DIRECTION('',(-1.,1.18816676436768E-15,0.));
#422=DIRECTION('',(1.17145536426183E-15,1.,0.));
#423=DIRECTION('',(-1.,1.17789865652746E-15,0.));
#424=DIRECTION('',(1.17145536426183E-15,1.,0.));
#425=DIRECTION('',(-1.,1.14263222968532E-15,0.));
#426=DIRECTION('',(1.17145536426183E-15,1.,0.));
#427=DIRECTION('',(-1.,1.17137202715334E-15,0.));
#428=DIRECTION('',(1.17145536426183E-15,1.,0.));
#429=DIRECTION('',(-1.,1.15009291224982E-15,0.));
#430=DIRECTION('',(1.17145536426183E-15,1.,0.));
#431=DIRECTION('',(-1.,1.15009291224982E-15,0.));
#432=DIRECTION('',(-1.17145536426183E-15,-1.,0.));
#433=DIRECTION('',(1.,-1.15009291224982E-15,0.));
#434=DIRECTION('',(1.17145536426183E-15,1.,0.));
#435=DIRECTION('',(-1.,1.17145536426183E-15,0.));
#436=DIRECTION('',(1.17145536426183E-15,1.,0.));
#437=DIRECTION('',(-1.,1.14878019915828E-15,0.));
#438=DIRECTION('',(-1.17145536426183E-15,-1.,0.));
#439=DIRECTION('',(1.,-1.17855582746888E-15,0.));
#440=DIRECTION('',(1.17145536426183E-15,1.,0.));
#441=DIRECTION('',(-1.,1.14878019915828E-15,0.));
#442=DIRECTION('',(1.17145536426183E-15,1.,0.));
#443=DIRECTION('',(-1.,1.23265504354855E-15,0.));
#444=DIRECTION('',(1.17145536426183E-15,1.,0.));
#445=DIRECTION('',(-1.,1.23746637665069E-15,0.));
#446=DIRECTION('',(1.17145536426183E-15,1.,0.));
#447=DIRECTION('',(-1.,1.1555206798272E-15,0.));
#448=DIRECTION('',(1.17145536426183E-15,1.,0.));
#449=DIRECTION('',(-1.,1.15009291224982E-15,0.));
#450=DIRECTION('',(1.17145536426183E-15,1.,0.));
#451=DIRECTION('',(-1.,1.15009291224982E-15,0.));
#452=DIRECTION('',(-1.17145536426183E-15,-1.,0.));
#453=DIRECTION('',(1.,-1.15009291224982E-15,0.));
#454=DIRECTION('',(1.17145536426183E-15,1.,0.));
#455=DIRECTION('',(-1.,1.17145536426183E-15,0.));
#456=DIRECTION('',(1.17145536426183E-15,1.,0.));
#457=DIRECTION('',(-1.,1.14878019916065E-15,0.));
#458=DIRECTION('',(-1.17145536426183E-15,-1.,0.));
#459=DIRECTION('',(1.,-1.1746872333258E-15,0.));
#460=DIRECTION('',(1.17145536426183E-15,1.,0.));
#461=DIRECTION('',(-1.,1.14878019916065E-15,0.));
#462=DIRECTION('',(1.17145536426183E-15,1.,0.));
#463=DIRECTION('',(-1.,1.23265504354855E-15,0.));
#464=DIRECTION('',(1.17145536426183E-15,1.,0.));
#465=DIRECTION('',(-1.,1.23746637665069E-15,0.));
#466=DIRECTION('',(1.17145536426183E-15,1.,0.));
#467=DIRECTION('',(-1.,1.16826455655608E-15,0.));
#468=DIRECTION('',(1.17145536426183E-15,1.,0.));
#469=DIRECTION('',(-1.,1.15009291224982E-15,0.));
#470=DIRECTION('',(1.17145536426183E-15,1.,0.));
#471=DIRECTION('',(-1.,1.15009291224982E-15,0.));
#472=DIRECTION('',(1.17145536426183E-15,1.,0.));
#473=DIRECTION('',(-1.,1.15009291224982E-15,0.));
#474=DIRECTION('',(1.17145536426183E-15,1.,0.));
#475=DIRECTION('',(-1.,1.17145536426183E-15,0.));
#476=DIRECTION('',(1.17145536426183E-15,1.,0.));
#477=DIRECTION('',(-1.,1.14088062126545E-15,0.));
#478=DIRECTION('',(1.17145536426183E-15,1.,0.));
#479=DIRECTION('',(-1.,1.17180570802233E-15,0.));
#480=DIRECTION('',(1.17145536426183E-15,1.,0.));
#481=DIRECTION('',(-1.,1.33030293504184E-15,0.));
#482=DIRECTION('',(1.17145536426183E-15,1.,0.));
#483=DIRECTION('',(-1.,1.22473244199465E-15,0.));
#484=DIRECTION('',(1.17145536426183E-15,1.,0.));
#485=DIRECTION('',(-1.,1.35779157194315E-15,0.));
#486=DIRECTION('',(1.17145536426183E-15,1.,0.));
#487=DIRECTION('',(-1.,9.80760604550635E-16,0.));
#488=DIRECTION('',(1.17145536426183E-15,1.,0.));
#489=DIRECTION('',(-1.,1.33819500803716E-15,0.));
#490=DIRECTION('',(1.17145536426183E-15,1.,0.));
#491=DIRECTION('',(-1.,1.05083062742172E-15,0.));
#492=DIRECTION('',(1.17145536426183E-15,1.,0.));
#493=DIRECTION('',(-1.,1.1159396530687E-15,0.));
#494=DIRECTION('',(-1.17145536426183E-15,-1.,0.));
#495=DIRECTION('',(1.,-1.25515058840627E-15,0.));
#496=DIRECTION('',(1.17145536426183E-15,1.,0.));
#497=DIRECTION('',(-1.,1.11593965306867E-15,0.));
#498=DIRECTION('',(1.17145536426183E-15,1.,0.));
#499=DIRECTION('',(-1.,1.0842021724855E-15,0.));
#500=DIRECTION('',(1.17145536426183E-15,1.,0.));
#501=DIRECTION('',(-1.,1.33700298932806E-15,0.));
#502=DIRECTION('',(1.17145536426183E-15,1.,0.));
#503=DIRECTION('',(-1.,1.17098290435555E-15,0.));
#504=DIRECTION('',(1.17145536426183E-15,1.,0.));
#505=DIRECTION('',(-1.,1.33700298932806E-15,0.));
#506=DIRECTION('',(1.17145536426183E-15,1.,0.));
#507=DIRECTION('',(-1.,1.0500954489407E-15,0.));
#508=DIRECTION('',(1.17145536426183E-15,1.,0.));
#509=DIRECTION('',(-1.,1.1159396530687E-15,0.));
#510=DIRECTION('',(-1.17145536426183E-15,-1.,0.));
#511=DIRECTION('',(1.,-1.16256613595048E-15,0.));
#512=DIRECTION('',(1.17145536426183E-15,1.,0.));
#513=DIRECTION('',(-1.,1.11593965306867E-15,0.));
#514=DIRECTION('',(1.17145536426183E-15,1.,0.));
#515=DIRECTION('',(-1.,1.0842021724855E-15,0.));
#516=DIRECTION('',(1.17145536426183E-15,1.,0.));
#517=DIRECTION('',(-1.,1.11586119819439E-15,0.));
#518=DIRECTION('',(1.17145536426183E-15,1.,0.));
#519=DIRECTION('',(-1.,1.12942511035551E-15,0.));
#520=DIRECTION('',(1.17145536426183E-15,1.,0.));
#521=DIRECTION('',(-1.,1.15648231731787E-15,0.));
#522=DIRECTION('',(1.17145536426183E-15,1.,0.));
#523=DIRECTION('',(-1.,1.22657215473108E-15,0.));
#524=DIRECTION('',(1.17145536426183E-15,1.,0.));
#525=DIRECTION('',(-1.,1.17145536426183E-15,0.));
#526=DIRECTION('',(1.17145536426183E-15,1.,0.));
#527=DIRECTION('',(-1.,1.17145536426183E-15,0.));
#528=DIRECTION('',(-1.17145536426183E-15,-1.,0.));
#529=DIRECTION('',(1.,-1.17145536426183E-15,0.));
#530=CARTESIAN_POINT('',(0.,0.,0.));
#531=CARTESIAN_POINT('',(3.63151162921169E-15,3.1,0.));
#532=CARTESIAN_POINT('',(-3.25,3.10000000000001,0.));
#533=CARTESIAN_POINT('',(0.,0.,0.));
#534=CARTESIAN_POINT('',(-3.25,3.80722993385096E-15,0.));
#535=CARTESIAN_POINT('',(0.,0.,0.));
#536=CARTESIAN_POINT('',(4.10009377491643E-15,3.5,0.));
#537=CARTESIAN_POINT('',(-3.65,3.50000000000001,0.));
#538=CARTESIAN_POINT('',(3.46944695195361E-15,3.1,0.));
#539=CARTESIAN_POINT('',(4.10009377491643E-15,3.5,0.));
#540=CARTESIAN_POINT('',(-4.175,3.50000000000001,0.));
#541=CARTESIAN_POINT('',(-3.65,3.50000000000001,0.));
#542=CARTESIAN_POINT('',(4.51010315240807E-15,3.85000000000001,0.));
#543=CARTESIAN_POINT('',(-4.525,3.85000000000001,0.));
#544=CARTESIAN_POINT('',(4.33680868994202E-15,3.85,0.));
#545=CARTESIAN_POINT('',(4.92011252989971E-15,4.20000000000001,0.));
#546=CARTESIAN_POINT('',(4.52500000000001,4.2,0.));
#547=CARTESIAN_POINT('',(0.,0.,0.));
#548=CARTESIAN_POINT('',(4.99696474682666E-15,4.2656040505439,0.));
#549=CARTESIAN_POINT('',(-3.77514227101027,4.2656040505439,0.));
#550=CARTESIAN_POINT('',(4.92779920971468E-15,4.20656164976445,0.));
#551=CARTESIAN_POINT('',(5.9561429090215E-15,5.08439594945611,0.));
#552=CARTESIAN_POINT('',(-3.77514227101027,5.08439594945611,0.));
#553=CARTESIAN_POINT('',(5.63785129692462E-15,4.675,0.));
#554=CARTESIAN_POINT('',(6.00025033215845E-15,5.12204776657399,0.));
#555=CARTESIAN_POINT('',(-4.20550450996168,5.12204776657399,0.));
#556=CARTESIAN_POINT('',(6.00025033215845E-15,5.12204776657399,0.));
#557=CARTESIAN_POINT('',(6.40869950018352E-15,5.4707159109061,0.));
#558=CARTESIAN_POINT('',(-4.52499999999999,5.47071591090611,0.));
#559=CARTESIAN_POINT('',(6.07153216591882E-15,5.4707159109061,0.));
#560=CARTESIAN_POINT('',(6.85301388093174E-15,5.85,0.));
#561=CARTESIAN_POINT('',(4.52500000000001,5.85,0.));
#562=CARTESIAN_POINT('',(0.,0.,0.));
#563=CARTESIAN_POINT('',(6.92986609785948E-15,5.91560405054458,0.));
#564=CARTESIAN_POINT('',(-3.77514227100246,5.91560405054458,0.));
#565=CARTESIAN_POINT('',(6.8607005607467E-15,5.85656164976445,0.));
#566=CARTESIAN_POINT('',(7.88904426005273E-15,6.73439594945543,0.));
#567=CARTESIAN_POINT('',(-3.77514227100246,6.73439594945543,0.));
#568=CARTESIAN_POINT('',(7.37257477290143E-15,6.325,0.));
#569=CARTESIAN_POINT('',(7.93315168319048E-15,6.77204776657399,0.));
#570=CARTESIAN_POINT('',(-4.20550450996167,6.772047766574,0.));
#571=CARTESIAN_POINT('',(7.93315168319048E-15,6.77204776657399,0.));
#572=CARTESIAN_POINT('',(8.34160085121555E-15,7.12071591090611,0.));
#573=CARTESIAN_POINT('',(-4.52499999999999,7.12071591090611,0.));
#574=CARTESIAN_POINT('',(8.67361737988404E-15,7.1207159109061,0.));
#575=CARTESIAN_POINT('',(8.78591523196377E-15,7.50000000000001,0.));
#576=CARTESIAN_POINT('',(-4.52499999999999,7.50000000000001,0.));
#577=CARTESIAN_POINT('',(0.,0.,0.));
#578=CARTESIAN_POINT('',(8.78591523196376E-15,7.5,0.));
#579=CARTESIAN_POINT('',(-3.04102540378443,7.50000000000001,0.));
#580=CARTESIAN_POINT('',(-3.04102540378443,7.50000000000001,0.));
#581=CARTESIAN_POINT('',(8.4930513908983E-15,7.25,0.));
#582=CARTESIAN_POINT('',(-2.60801270189221,7.25,0.));
#583=CARTESIAN_POINT('',(8.23993651088983E-15,7.,0.));
#584=CARTESIAN_POINT('',(7.08977533378967E-15,6.05210881274775,0.));
#585=CARTESIAN_POINT('',(-1.91640990247225,6.05210881274775,0.));
#586=CARTESIAN_POINT('',(7.08977533378967E-15,6.05210881274775,0.));
#587=CARTESIAN_POINT('',(6.69088056286617E-15,5.71159667451971,0.));
#588=CARTESIAN_POINT('',(-1.94447386093742,5.71159667451971,0.));
#589=CARTESIAN_POINT('',(6.93889390390723E-15,5.90210881274775,0.));
#590=CARTESIAN_POINT('',(6.13902605580657E-15,5.24051213822811,0.));
#591=CARTESIAN_POINT('',(-2.3317436626701,5.24051213822811,0.));
#592=CARTESIAN_POINT('',(6.13902605580657E-15,5.24051213822811,0.));
#593=CARTESIAN_POINT('',(5.69267312323804E-15,4.85948786177196,0.));
#594=CARTESIAN_POINT('',(-2.33174366267015,4.85948786177196,0.));
#595=CARTESIAN_POINT('',(6.07153216591882E-15,5.05,0.));
#596=CARTESIAN_POINT('',(5.14328899618394E-15,4.39051213822804,0.));
#597=CARTESIAN_POINT('',(-1.946207476524,4.39051213822804,0.));
#598=CARTESIAN_POINT('',(5.69267312323804E-15,4.85948786177196,0.));
#599=CARTESIAN_POINT('',(4.69693606361548E-15,4.00948786177196,0.));
#600=CARTESIAN_POINT('',(-1.946207476524,4.00948786177196,0.));
#601=CARTESIAN_POINT('',(4.77048955893622E-15,4.2,0.));
#602=CARTESIAN_POINT('',(4.14755193656145E-15,3.54051213822811,0.));
#603=CARTESIAN_POINT('',(-2.3317436626701,3.54051213822811,0.));
#604=CARTESIAN_POINT('',(4.14755193656145E-15,3.54051213822811,0.));
#605=CARTESIAN_POINT('',(3.70119900399292E-15,3.15948786177196,0.));
#606=CARTESIAN_POINT('',(-2.33174366267015,3.15948786177196,0.));
#607=CARTESIAN_POINT('',(3.90312782094782E-15,3.35,0.));
#608=CARTESIAN_POINT('',(3.1476095413864E-15,2.68692229974105,0.));
#609=CARTESIAN_POINT('',(-1.94325633732921,2.68692229974105,0.));
#610=CARTESIAN_POINT('',(3.70119900399292E-15,3.15948786177196,0.));
#611=CARTESIAN_POINT('',(2.92443307510307E-15,2.49641016151378,0.));
#612=CARTESIAN_POINT('',(-1.875,2.49641016151378,0.));
#613=CARTESIAN_POINT('',(3.03576608295941E-15,2.49641016151378,0.));
#614=CARTESIAN_POINT('',(4.51228192908985E-46,3.85185988877447E-31,0.));
#615=CARTESIAN_POINT('',(-1.875,2.19647880799094E-15,0.));
#616=CARTESIAN_POINT('',(0.,0.,0.));
#617=CARTESIAN_POINT('',(-3.25,3.80722993385096E-15,0.));
#618=MECHANICAL_DESIGN_GEOMETRIC_PRESENTATION_REPRESENTATION('',(#24),#619);
#619=(
GEOMETRIC_REPRESENTATION_CONTEXT(3)
GLOBAL_UNCERTAINTY_ASSIGNED_CONTEXT((#620))
GLOBAL_UNIT_ASSIGNED_CONTEXT((#626,#622,#621))
REPRESENTATION_CONTEXT('15324987','TOP_LEVEL_ASSEMBLY_PART')
);
#620=UNCERTAINTY_MEASURE_WITH_UNIT(LENGTH_MEASURE(2.E-5),#626,
'DISTANCE_ACCURACY_VALUE','Maximum Tolerance applied to model');
#621=(
NAMED_UNIT(*)
SI_UNIT($,.STERADIAN.)
SOLID_ANGLE_UNIT()
);
#622=(
CONVERSION_BASED_UNIT('DEGREE',#624)
NAMED_UNIT(#623)
PLANE_ANGLE_UNIT()
);
#623=DIMENSIONAL_EXPONENTS(0.,0.,0.,0.,0.,0.,0.);
#624=PLANE_ANGLE_MEASURE_WITH_UNIT(PLANE_ANGLE_MEASURE(0.0174532925),#625);
#625=(
NAMED_UNIT(*)
PLANE_ANGLE_UNIT()
SI_UNIT($,.RADIAN.)
);
#626=(
LENGTH_UNIT()
NAMED_UNIT(*)
SI_UNIT(.MILLI.,.METRE.)
);
ENDSEC;
END-ISO-10303-21;
